Kent.nu — Officiell hemsida för Sveriges största rockband

747 (albumversion – sv)

Text: J. Berg
Musik: J. Berg

Text

Tystnad
Tunnel, avfart
När taxametern slagits på
försvinner allt i regnet
utan spår
& som en viskning
ser Vi syner nu igen
Det här är nåt
som inte ens har hänt…

Tystnad
En rökfri viskning
Det är exakt vad Vi vill ha
det luftkonditionerade ljudet
av fart
Du är värd att dö för
Ni kan skratta om Ni vill
Håna oss Vi rör oss Ni står still…

Lyssnar
stel & fastspänd
& när paniken bryter ut
ler Du svagt
och viskar till Mig Du
är värd att dö för
Men mot gummi, glas & metall
betyder ett mirakel inget alls…

Ackord

|n.c.  | 4x (bara trummor)

  (Bm)
eb -------------------
Bb -------------------
Gb --------0----------
Db ----0-------0---0--
Ab ------9---9---9---- 
Eb --7---------------- 4x

Vers:
    D                  A                  Bm                 Bm
eb -------------------|------------------|------------------|------------------|
Bb -------------------|------------------|------------------|------------------|
Gb --------0----------|-------0----------|-------0----------|-------0----------|
Db ----0-------0---0--|---0-------0---0--|---0-------0---0--|---0-------0---0--|
Ab ------9---9---9----|-----9---9---9----|-----9---9---9----|-----9---9---9----|
Eb -10----------------|-9----------------|-7----------------|-7----------------|

    G                  Em                 G                  A
eb -------------------|------------------|------------------|------------------|
Bb -------------------|------------------|------------------|------------------|
Gb --------0----------|-------0----------|-------0----------|---6---7---6---6--|
Db ----0-------0---0--|---0-------0---0--|---0-------0---0--|------------------|
Ab ------9---9---9----|-----9---9---9----|-----9---9---9----|------------------|
Eb -10----------------|-9----------------|-7----------------|-5---5---5---5----|
 
 

   D        A
  Tystnad
          Bm
  tunnel, avfart
           G             Em
  När taxametern slagits på
       G             A            D
  försvinner allt i regnet utan spår
A             Bm
  och som en viskning
          G        Em
  ser vi syner nu igen
       G              A          
  Det här är nåt som inte ens har hänt...

|D     |A     |Bm    |Bm    |
|G     |Em    |G     |A     |

    Syntslinga (fast här för gitarrtabulatur) 
eb --------17---------15-------------------------
Bb --15-14------15-14------15-14------15-14------
Gb -----------------------------16----------17--- x2

   
   D        A
  Tystnad
             Bm
  en rökfri viskning
           G               Em
  Det är exakt vad vi vill ha
       G           A                 D
  det luftkonditionerande ljudet av fart 
A                Bm
  Du är värd att dö för
            G           Em
  Ni kan skratta om ni vill
   G           A
  Håna oss vi rör oss ni står still...

|D     |A     |Bm    |Bm    |
|G     |Em    |G     |A     | 2x

    Syntslinga
eb -----------17------------15-----------------------------
Bb --14-15-14------14-15-14------14-15-14-----14-15-14-----
Gb ---------------------------------------16-----------17-- x2

eb -----------21-17------------19-17------------17-14------------15-14--
Bb --14-15-14---------14-15-14------------15---------------15-----------
Gb ------------------------------------16----16---------16----16-------- x2

   D       A
  Lyssnar
            Bm
  stel och fastspänd
             G           Em
  och när paniken bryter ut
   G
  ler du svagt
       A                D
  och viskar till mig, du
A             Bm
  är värd att dö för
           G                Em
  Men mot gummi, glas och metall
     G           A
  betyder ett mirakel inget alls...


    D                 |D
eb -------------------|-------------------
Bb -------------------|-------------------
Gb --------0----------|--------0----------
Db ----0-------0---0--|----0-------0---0--
Ab ------9---9---9----|------9---9---9----
Eb -10----------------|-10----------------

|E    |E    |Bm   |Bm   |E