Kent.nu — Officiell hemsida för Sveriges största rockband

Bianca

Text: J. Berg
Musik: J. Berg / M. Sköld

Text

Belöna mig med
standardkrav
& renad luft
AC-sval
Belöna mig med segertal
en ledarplats
av idag

Refr.
Som ett färgfotografi
är jag glansig inuti
Några tusendelar Denivit
& som ett färgfotografi
som nån förstört med flit
är jag svartvit inuti?

Belöna mig med ny teknik
en egen film
dyr plastik
Belöna mig med
Concorde dit
en blixtvisit
sagolik

Refr. x 2

Ackord

intro: |Gm    |Cm    |Gm     |F     |
       |Eb    |F     |Eb     |Cm    |

Ena gitarren:
e -----------------------------------------------
B -----------------------------------------------
G --3--3---3--3--5--5---5--5--3--3---3--3--2--2--
D -----------------------------------------------
A -----------------------------------------------
E -----------------------------------------------

e -----------------------------------------------------------------
B -----------------------------------------------------------------
G -----------------------------------------------------------------
D --3--5--3--3--3---3--5--3--3--3---3--5--3--3--3---3--5--3--3--3--
A -----------------------------------------------------------------
E ----------------------------------------------------------------- 2x

Andra gitarren:
e ------------------------------------------------------------------
B ------6-----------6-----------6--4-3-----3--------6--4-3-----3----
G ----3-----------3-----------3---------5---------3---------5-------
D --5-----------5-----------5-------------------5------------------- 
A ------------------------------------------------------------------
E ------------------------------------------------------------------


    Gm    Csus2    Gm      F
  Belöna mig med standardkrav
       Eb    F         Eb    Cm
  och renad luft, AC-sval
    Gm    Csus2   Gm   F
  Belöna mig med segertal
      Eb    F       Eb    Cm
  en ledarplats av idag


F                    Csus2
  Som ett färgfotografi
                    Eb
  är jag glansig inuti
                      Gm
  Några tusendelar Denivit
F                        Csus2
  och som ett färgfotografi
                         Eb
  som nån förstört med flit
                      F      Dm
  är jag svartvit inuti?

     Gm   Csus2  Gm     F
  Belöna mig med ny teknik
     Eb    F             Eb    Cm
  en egen film, dyr plastik
     Gm   Csus2   Gm       F
  Belöna mig med Concorde dit
       Eb    F        Eb     Cm
  en blixtvisit, sagolik


F                    Csus2
  Som ett färgfotografi
                    Eb
  är jag glansig inuti
                      Gm
  Några tusendelar Denivit
F                        Csus2
  och som ett färgfotografi
                         Eb
  som nån förstört med flit
                      F      Dm
  är jag svartvit inuti?

|Eb    |Bb    |Gm    |Gm    | första raden 3 gånger
|Eb    |Bb    |Gm    |Bb    |


F                    Csus2
  Som ett färgfotografi
                    Eb
  är jag glansig inuti
                      Gm
  Några tusendelar Denivit
F                        Csus2
  och som ett färgfotografi
                         Eb
  som nån förstört med flit
                      F      Dm
  är jag svartvit inuti?

|F     |F     |Cm    |Cm    |
|Eb    |Eb    |Gm    |Gm    |
|F     |F     |Cm    |Cm    |
|Eb    |Eb    |F     |Dm    | 2x

Gm

Solo (outro):
G --10---9--8--7--8---0---8---0--8--7---0---

G --10---9--8--7--8---0---8---0--14--12-10--7--

G --10---9--8--7--8---0---8---0--8--7---0---

G --10---9--8--7--8---0---8---0--14--12-10--7---10--