Kent.nu — Officiell hemsida för Sveriges största rockband

Du är ånga

Text: J. Berg
Musik: J. Berg

Text

Du säger ”När ni var små, säg vilka droger tog ni då?”
När vi var små så sköt vi kåda, bark och stål
Och hjärnan blev mjuk av luthersk ångest inför Gud
Och så blev jag sjuk och blev den skugga du ser nu

Men när natten var ljus
I vårt sextiotalshus
Så var vi långt, långt, långt härifrån
I vår dröm om att fly till någonting nytt

Jag är född i en tid precis när dammet lagt sig ner
En meningslös tid, exakt en tusendel försent
Och visst bor det ett skrik någonstans i ditt lugna, tysta liv
En vild fantasi som dränks i lådvinsnostalgi

Men när natten är ljus
I ditt sjuttiotalshus
Och du är ånga, spår av ett moln
I en dröm om att fly till någonting nytt
Och du håller så hårt och när längtan blir svår
Så är jag din, din, din att ta med
Att ta ut, att ta in i någonting nytt

Och när natten är ljus
I vårt åttiotalshus
Så är vi långt, långt, långt härifrån i vår dröm om att fly till någonting nytt
Och vi håller för hårt, men den här drömmen är vår
Och du är min, min, min att ta med, att ta ut på en jakt
Efter tiden som flytt

Ackord

Intro:

e|----------------|----------------|
B|7-7-7-7-7-7-7-7-|7-5-5-5-5-5-5-5-|
G|6-6-6-6-6-6-6-6-|6-6-6-6-6-6-6-6-| x2
D|4-4-4-4-4-4-4-4-|4-4-4-4-4-4-4-4-|

| F#m C#m  |  F#m E    |  D   E    |  F#m E    |

F#m                   Bm              A            E
 Du säger "När ni var små, säg vilka droger tog ni då?"
C#m        D              E              F#m
När vi var små så sköt vi kåda, bark och stål
F#m               Bm               A            E
 Och hjärnan blev mjuk av luthersk ångest inför Gud
    C#m          D                 E            F#m
Och så blev jag sjuk och blev den skugga du ser nu

F#m             E
 Men när natten var ljus
F#m             E
 I vårt sextiotalshus
          D                       E
Så var vi långt, långt, långt härifrån
      F#m         E
I vår dröm om att fly till någonting nytt

 |F#m             |C#m             |F#m             |E               |
 |                |                |                |                |
e|--5-------------|----------------|--5-------------|----------------|
B|7-----7---------|-5--------------|7-----7---------|-5--------------|
G|----------------|6----6----------|----------------|6----6----------|
D|----------------|----------------|----------------|----------------|

 |D               |E               |F#m             |E               |
 |                |                |                |                |
e|----------------|----------------|--------------5-|----------------|
B|--7-------------|--9-------------|--7---9-----7---|----------------|
G|7-----7---------|9----9----------|6---------------|----------------|
D|----------------|----------------|----------------|----------------|

F#m               Bm              A               E
 Jag är född i en tid precis när dammet lagt sig ner
   C#m        D             E           F#m
En meningslös tid, exakt en tusendel försent
F#m                    Bm                      A             E
 Och visst bor det ett skrik någonstans i ditt lugna, tysta liv
   C#m        D              E             F#m
En vild fantasi som dränks i lådvinsnostalgi

F#m             E
 Men när natten är ljus
F#m             E
 I ditt sjuttiotalshus
          D               E
Och du är ånga, spår av ett moln
     F#m         E                 A
I en dröm om att fly till någonting nytt
                E    F#m                E
Och du håller så hårt och när längtan blir svår
          D                   E
Så är jag din, din, din att ta med
      F#m        E
Att ta ut, att ta in i någonting nytt

 |F#m             |Bm              |F#m             |Bm      E       |
 |                |                |                |                |
e|----------------|----------------|----------------|------------7---|
B|----------------|----------------|----------------|------9-9-9---9-|
G|6-6-6-6-6-----7-|7-7-7-7-9---7---|6-6-6-6-6-----6-|7-7-7-7-9-9-9-9-|
D|----------7-----|----------------|----------7-----|----------------|

 |A               |D       D/C#    |E               |Fdim            |
 |                |                |                |                |
e|----------------|----------------|----------------|
  • Wille

    me want hela solo tabben!