Kent.nu — Officiell hemsida för Sveriges största rockband

Du var min armé

Text: J. Berg
Musik: J. Berg

Text

Töm ditt rum på tonårstankar nu
Du sa, ”Gör ditt val, ta ett självständigt beslut”
Jag höll en hand då mot din varma hud
Du sa, ”Stäng din dörr, vi har något att reda ut”

Och du stod där med din kniv
Bredvid din tyska bil
Du skar mitt svala liv
Mönstrat till ett krig

Du stal min blick, du gick din egen väg
Du sa, ”Det finns små trick som får folk att vilja väl”
Och sångerna jag hört, och filmerna jag såg
Var det vildaste jag gjort
Men inget var så stort

Som när du stod där med din kniv
Bredvid din tyska bil
Du skar mitt svala liv
Mönstrat till ett krig

Ackord

Intro:

| Dm7       |  Dm7      |  Dm7 C/E  |  F C/E    |

| Dm7       |  Dm7      |  Dm7 C    |  F C      | x3

Dm7 C/E  F      C            Dm7
Töm ditt rum på tonårstankar nu
      C          F           Dm                C
Du sa, "Gör ditt val, ta ett självständigt beslut"
    Dm  C/E F   F/A Bb            C
Jag höll en hand då mot din varma hud
      Bb          C            F              Bb/D
Du sa, "Stäng din dörr, vi har något att reda ut"

       Gm   F   C   Dm Bbmaj7
Och du stod där med din kniv
    C   Dm  F  Am Bbmaj7
Bredvid din tyska bil
   Gm   F    C  Dm Bbmaj7
Du skar mitt svala liv
F   C/E  Gm   F  Dm
Mönstrat till ett krig

 |Dm7             |Dm7             |Dm7   C         |F     C         |
 |                |                |                |                |
e|---------13---12|----------------|----------------|----------------|
B|----------------|------13--------|------13--------|------13--------|
G|----------------|----------------|12--------------|10--------------|
D|----------------|----------------|----------------|----------------|
A|----------------|----------------|----------------|----------------|
E|----------------|----------------|----------------|----------------|

 |Dm7             |Dm7             |Dm7   C         |F     C         |
 |                |                |                |                |
e|---------13---12|----------------|----------------|----------------|
B|----------------|------13--------|------13--------|------13--------|
G|----------------|----------------|12--------------|10--------------|
D|12--------------|----------------|----------------|----------------|
A|----------------|----------------|----------------|----------------|
E|----------------|----------------|----------------|----------------|

   Dm7      F         C             Dm7
Du stal min blick, du gick din egen väg
      C                     F             Dm             C
Du sa, "Det finns små trick som får folk att vilja väl"
    Dm       C/E F    F/A  Bb           C
Och sångerna jag hört, och filmerna jag såg
        Bb           C
Var det vildaste jag gjort
    F           Bb/D
Men inget var så stort

           Gm   F   C   Dm Bbmaj7
Som när du stod där med din kniv
    C   Dm  F  Am Bbmaj7
Bredvid din tyska bil
   Gm   F    C  Dm Bbmaj7
Du skar mitt svala liv
F    C/E Gm   F/A C
Mönstrat till ett krig

 |Bb                              |Gm                              |F                               |Dm                              |
 |                                |                                |                                |                                |
e|--------------------------------|--------------------------------|----12--12--12--12--13----------|12--12--12--12--12--12--13------|
B|13--13--13--13--13--13--13--13--|13--11--11--10------------------|--------------------------------|--------10------11------13------|
G|--------------------------------|------------------10------------|--------------------------------|--------------------------------|
D|--------------------------------|--------------------------------|--------------------------------|--------------------------------| x3
A|-------