Kent.nu — Officiell hemsida för Sveriges största rockband

Elvis

Text: J. Berg
Musik: J. Berg

Text

Bara skinn & ben
med ett hjärta av tvål
Det får Dom solblekta
vackra att se
rött i år
& Ni har borrat små hål
försöker ta Mina tankar
men Jag har pratat
med Elvis
& rört vid Hans hår

Refr.
Jag stjäl tillbaka Min tid
Alla timmar Ni en gång
stal av Mig
En gentleman ett geni
En superhjälte för Dig

På en sekund
är Jag långt härifrån
Jag mäter försprång i ljusår
Jag är redan i mål
& Jag ska borra ett hål
ta tillbaks Mina tankar
Jag har pratat med Elvis
& rört vid Hans hår

Refr. x 3

Ackord

    Em                                    A
e ------------------------------------------------
B ------------------------------------------------
G ------------------------------------------------
D -----5----5---4--5--4-5-4-5--7--5-7--5-----11---
A --7-----7---7---------------------------4/------
E ------------------------------------------------

    Am          G     D       Cmaj7      Gitarr 2:
e ----------------------------------   e ---------------------------------
B ----------------------------------   B ------------8--------------8--7--
G ----------------------------------   G ---------------------------------
D --10----------9-------------------   D ------9--------------9-----------
A --------------------9--10---7-----   A -/10----10------/10----10--------
E ----------------------------------   E ---------------------------------

Em               Emmaj7
  Bara skinn och ben
Em7                   A
  med ett hjärta av tvål
Am                       G             D     Cmaj7
  Det får dom solblekta vackra att se rött i år
Em                       D
  Och ni har borrat små hål
Cmaj7               Am
  försöker ta mina tankar
                         G          D            Cmaj7
  men jag har pratat med Elvis och rört vid hans hår

                          G    Bm
  Jag stjäl tillbaka min tid
                 Em               C
  Alla timmar ni en gång stal av mig
                      G    D
  En gentleman ett geni
                      Cmaj7    Am
  En superhjälte för dig

Em       Emmaj7
  På en sekund
Em7                  A
  är jag långt härifrån
Am                        G            D      Cmaj7
  Jag mäter försprång i ljusår jag är redan i mål
Em                       D
  Och jag ska borra ett hål
Cmaj7               Am
  ta tillbaks mina tankar
                     G          D            Cmaj7
  Jag har pratat med Elvis och rört vid hans hår

                          G    Bm
  Jag stjäl tillbaka min tid
                 Em               C
  Alla timmar ni en gång stal av mig
                      G    D
  En gentleman ett geni
                      Cmaj7    Am
  En superhjälte för dig

|Em    |Em/D  |Em/C  |A     |
|Am    |G  D  |Cmaj7 |Cmaj7 |

                          G    Bm
  Jag stjäl tillbaka min tid
                 Em               C
  Alla timmar ni en gång stal av mig
                      G    D
  En gentleman ett geni
                      Cmaj7    Am
  En superhjälte för dig
                          G    Bm
  Jag stjäl tillbaka min tid
                 Em               C
  Alla timmar ni en gång stal av mig
                      G    D
  En gentleman ett geni
                  Cmaj Am
  En superhjälte för  dig

|G     |Bm    |Em    |C    |
|G     |D     |Cmaj  |Am   | 2x

G

Solo:
e -------------------------------------------------------------------
B -------------------------------------------------------------------
G -------------------------------------------------------------------
D -9--9-9-9-12-9/16-16--7--7-7h9-7--9--9-9-9-12-9/17-17--7--7-7h9-7--
A -------------------------------------------------------------------
E -------------------------------------------------------------------

e -------------------------------------------------------------------
B -----------------------------------10-12-----------10-12-----------
G -----------------------------------------11-12-12--------11-12-12--
D --9--9-9-9-12-9/16-16--7--7-7h9-7--7--9------------7--9------------
A -----------------------------------------9--10-10--------9--10-10--
E ------------------------------------------------------------------- 2x

Kommentar: Cmaj7 = x32000, Emmaj7 = 021000, Em7 = 020000