Kent.nu — Officiell hemsida för Sveriges största rockband

Glider

Text: J. Berg
Musik: J. Berg

Text

Spöklikt vit
i solskens dis
& luften är sträv som sand

Du vänder dig om
& vinkar snabbt
som frös du om din hand

Följsam svag
leder jag
dig med min arm runt svanken

Våldsamt klar
smeker jag
lätt din hud med tanken

Långsam, glömd
som en dröm
glider du ur min hand

Du vänder dig om
& ler mot dom
som aldrig haft en chans

Följsam svag
leder jag
dig med min arm runt svanken

Våldsamt klar
glider jag
över din hud med tanken
med tanken
med tanken
med tanken

Ackord

|n.c.  | 4x
|F#m   | 4x

    F#m     E     Dmaj7    C#sus
  Spöklikt vit i solskens dis
       Bm          E       F#m
  och luften är sträv som sand
      F#m       E       Dmaj7   C#sus
  Du vänder dig om och vinkar snabbt
        Bm    E       F#m
  som frös du om din hand

   Dmaj7    E   Amaj7 F#m
  Följsam svag leder jag
   Dmaj7      E        F#m
  dig med min arm runt  svanken
   Dmaj7     E    Amaj7 F#m
  Våldsamt klar smeker jag
   Dmaj7    E      F#m
  lätt din hud med  tanken

   F#m       E    Dmaj7  C#sus
  Långsam, glömd som en dröm
    Bm      E       F#m
  glider du ur min hand
      F#m       E       Dmaj7   C#sus
  Du vänder dig om och ler mot dom
      Bm      E        F#m
  som aldrig haft en chans

   Dmaj7    E   Amaj7 F#m
  Följsam svag leder jag
   Dmaj7      E        F#m
  dig med min arm runt  svanken
   Dmaj7     E    Amaj7 F#m
  Våldsamt klar smeker jag
   Dmaj7    E      F#m
  lätt din hud med  tanken
   Dmaj7 F#m
  med   tanken   3x

Dmaj7 F#m 

Kommentar: n.c. = no chord, Dmaj7 = xx0222, C#sus = x46674
           Amaj7 = x02120

Tabulaturer:

Intro:
e -------------------
B -------------------
G --------2----------
D ----0------0---0---
A ------4------4-----
E --2----------------

Basen i introt:
G -------------------
D --2h4p2------------
A ---------4--4------
E ---------------2---

Vers:

   F#m                E                 Dmaj7             C#sus
e ------------------|-----------------|-----------------|-----------------
B ------------------|-----------------|-----------------|-----------------
G --------2---------|-------1---------|-------6---------|-------6---------
D ----0------0---0--|---2------2---2--|---4------4---4--|---4------6---6--
A ------4------4----|-----4------4----|-5---5------5----|-4---4------4----
E --2---------------|-0---------------|-----------------|-----------------

   Bm                 E                 F#m
e ------------------|-----------------|-----------------|-----------------
B --------3---------|-----------------|-----------------|-----------------
G -----------4---4--|-------1---------|-------2---------|-------2---------
D ----4--------4----|---2------2---2--|---0------0---0--|---0------0---0--
A --2---2-----------|-----2------2----|-----4------4----|-----4------4----
E ------------------|-0---------------|-2---------------|-2--------------- 2x