Kent.nu — Officiell hemsida för Sveriges största rockband

Ingenting någonsin

Text: J. Berg
Musik: J. Berg

Text

Dom säger att jag varit trasig
Aldrig har jag varit hel
Dom säger det är nåt med benen
men ingenting har någonsin
varit mer fel

Dom säger att jag varit elak
Alltid har jag varit rak
Dom säger det är fel på hjärtat
men ingenting har någonsin
slagit så hårda slag

Dom säger jag varit farlig
Alltid har jag varit svag
Dom säger det är nåt med mitt huvud
men ingenting har någonsin
varit så nära ett svar

Ackord

Intro: |B     |G#m E  |B     |G#m E  |
       |G#m   |E   F# |E     |C#m    |


Intromelodi, gitarr 1:

H|-----7-----7-----7-----7---
G|-8h9---8h9---8h9---8h9----- osv...

h = (hammer on) slå ann åttan och lägg sedan på fingret på nian
    utan att slå an den med plektrumet.


       G#m                   E     B
  Dom säger att jag varit trasig
  E                    C#m
  Aldrig har jag varit hel
      G#m                   E     B
  Dom säger det är nåt med benen
      E                      C#m
  men ingenting har någonsin varit mer fel

|B     |G#m E  |B     |G#m E  |
|G#m   |E   F# |E     |C#m    |

      G#m                  E      B
  Dom säger att jag varit elak
  E                    C#m
  Alltid har jag varit rak
      G#m                    E       B
  Dom säger det är nåt med hjärtat
      E
  men ingenting har någonsin
  C#m
  slagit så hårda slag

|B     |G#m E  |B     |G#m E  |
|G#m   |E   F# |E     |C#m    |

      G#m              E          B
  Dom säger jag varit farlig
  E                     C#m
  Alltid har jag varit svag
      G#m                        E     B
  Dom säger det är nåt med mitt huvud
      E
  men ingenting har någonsin
  C#m
  varit så nära ett svar

|B     |G#m E  |B     |G#m E  |

|B     |B      |B     |B      | 12x



Under versen, gitarr 1:

e|----------------------------------------------------------------------------|
H|----------------------------------------------------------------------------|
G|--4----6----8----9----16----11----10-9-10-9-10-9-10-9-10-9-10-9-10-9-10-9---|
D|----------------------------------------------------------------------------|
A|----------------------------------------------------------------------------|
E|----------------------------------------------------------------------------|




Mellanspel, gitarr 1:

e|----------------------------------------------------------------------------------|
H|----------------------------------------------------------------------------------|
G|--10-9-10-9-10-9-10-9-10-9-10-9-10-9-10-9-10-9-10-9-10-9-10-9-10-9-10-9-10-9-10/--|
D|----------------------------------------------------------------------------------|
A|----------------------------------------------------------------------------------|
E|----------------------------------------------------------------------------------|


e|----------------------------------------|
H|----------------------------------------|
G|--16-------11---8--9-8--9-8--9-8--8\ ---|
D|----------------------------------------|
A|----------------------------------------|
E|----------------------------------------|




Mellanspel, gitarr 2:

e|--------6------------------------------6----------------------|
H|--9-------7----------------------9-------7--------------------|
G|--------------8---7-------8------------------8---7-------8----|
D|------------------------9------------------------------9------|
A|--------------------------------------------------------------|
E|--------------------------------------------------------------|



Outro, gitarr 1:

e|-----------------------------------------------------------------------------------|
H|-----------------------------------------------------------------------------------|
G|--10-9-10-9-10-9-10-9-10-9-10-9-10-9-10-9-10-9-10-9-10-9-10-9-10-9-10-9-10-9-10-9--|
D|-----------------------------------------------------------------------------------|