Kent.nu — Officiell hemsida för Sveriges största rockband

Insekter

Text: J. Berg
Musik: J. Berg

Text

Jag har skuggat dig i år
jag har sparat varje klipp
och så såg du mig i går
jag såg rädslan i din kameravana blick

Men jag är den enda du har
dina vänner har glömt dig
och jag tror att du glömt vem du var
inga lyckliga slut
Glöm alla sagor låt flugorna slåss
om det lilla som lämnats kvar

låt det vara…

Se hur cyniska vi blev
hur patetiska vi var
Och ditt ansikte ett svek
För alla platser det tog dig från och gav dig till

Och jag är den enda du har
dina vänner har glömt dig
och jag tror att du glömt vem du var
inga lyckliga slut
så glöm alla sagor låt flugorna slåss
om det lilla som lämnades kvar

låt det vara…

Ackord


Intro:

Gitarr:
  Dm          Am            Bb  F   Dm          Am            Bb Eb  Am 
e------10--5-----------------------------10--5-------------------------
B-9-10--------------0-------1---1---9-10--------------0-------1--6---1-
G---------------5------2--------------------------5------2-----------2-
D-----------------2------2--------------------------2------2---------2-
A-------------0---------------------------------0----------------------
E----------------------------------------------------------------------

Piano:
  Dm          Am            Bb  F   Dm          Am    
e------10--5--8-7-5-0--------------------10--5--8-7-5-0--------------8-
B-9-10------------------------------9-10-----------------------------10
G--------------------------------------------------------------------9-


     |Dm     |Am    |Bb      |F       |
     |Dm     |Am    |Bb  Eb  |Am      |


            Dm          Am     
  Jag har skuggat dig i år
          Bb            F
  jag har sparat varje klipp
          Dm           Am     
  och så såg du mig i går
          Eb            Gm          D
  jag såg rädslan i din kameravana blick

|D    |

       F                  Am     
  Men jag är den enda du har
        Dm
  dina vänner har glömt dig
          Bb                        F
  och jag tror att du glömt vem du var
                 Am     
  inga lyckliga slut
    Dm                Bb
  Glöm alla sagor låt flugorna slåss
         Gm                C
  om det lilla som lämnats kvar

n.c.
  låt det vara...

     |Dm     |Am    |Bb      |F      |
     |Dm     |Am    |Bb  Eb  |Am     |

         Dm          Am    
  Se hur cyniska vi blev
       Bb           F
  hur patetiska vi var
           Dm           Am     
  Och ditt ansikte ett svek
           Eb              Gm                D
  För alla platser som det tog dig från och gav dig till

|D     |

       F                  Am     
  Och jag är den enda du har
        Dm
  dina vänner har glömt dig
         Bb                         F
  och jag tror att du glömt vem du var
                 Am    
  inga lyckliga slut
      Dm                  Bb
  så glöm alla sagor låt flugorna slåss
         Gm                 C
  om det lilla som lämnats kvar

n.c.
  låt det vara...

|Dm    |Am    |Bb     |F    |
|Dm    |Am    |Bb Eb  |

|Am        |Am         |Am            |Am       |
 
Am