Kent.nu — Officiell hemsida för Sveriges största rockband

Jag vill inte vara rädd

Text: J. Berg
Musik: J. Berg

Text

Genom staden bland husen
är det inte tillräckligt ljust än
Genom gator jag drömt om
går jag hemåt för att en gång somna
Jag vill inte vara rädd
Varför måste jag vara rädd?

Somliga vet att dom är starkare än andra
Somliga älskar att slå sönder en vit tandrad
Somliga lever för att pina varandra
Innerst inne är vi likadana
Jag tror att människor gör så av gammal vana

Under kepsar och mössor
blinkar ögon som ögon ska blinka
Han gör det utan att tänka
Lika lätt som det är att vinka farväl
Jag vill inte vara rädd
Vaför måste jag vara rädd?

Somliga vet att dom är starkare än andra
Somliga älskar att slå sönder en vit tandrad
Somliga lever för att pina varandra
Innerst inne är vi likadana
Jag tror att människor gör så av gammal vana

Du kan slå mig i bitar
nånting inuti kommer att stå upp ändå
Du kan slå tills det vita vita
hatet är allt som återstår
Jag vill inte vara rädd
Varför måste jag vara rädd?

Somliga vet att dom är starkare än andra
Somliga älskar att slå sönder en vit tandrad
Somliga lever för att pina varandra
Innerst inne är vi likadana

Somliga vet att dom är starkare än andra
Somliga älskar att slå sönder en vit tandrad
Somliga lever för att pina varandra
Innerst inne är vi likadana
Jag tror att människor gör så av gammal vana

Ackord

Intro: |C     |Am7    |F     |Bm    | 2x

e ---------------------------------------
B ---------------------------------------
G ------7-5------7-5------4-5------4-5---
D --7-7------7-7------5-5------5-5-------
A ---------------------------------------
E ---------------------------------------

e -----------------------------------
B --5-5-6-5-5-5-6-5------------------
G ------------------4-4-4-4-4-4-4-4--
D -----------------------------------
A -----------------------------------
E -----------------------------------


C                     Am7
  Genom staden bland husen
  F                         Bm
  är det inte tillräckligt ljust än
C                  Am7
  Genom gator jag drömt om
           F            Bm
  går jag hemåt för att en gång somna


Gitarr 1 (rent ljud):
e -----------------------------------
B -----------------------------------
G --2-2-2-2-0-0-0-0------------------
D ------------------2-2-2-2-1-1-1-1--
A -----------------------------------
E -----------------------------------

Gitarr 2 (distad):
e -----------------------------------
B ------------------1-1-1-1----------
G --2-2-2-2-4-4-4-4---------0-0-0-0--
D -----------------------------------
A -----------------------------------
E -----------------------------------

Båda gitarrerna:
e -----------------------------
B -----------------------------
G ----2---2---2---2---1---1----
D --3---3---3---3---3---3---3--
A -----------------------------
E -----------------------------

F          G7         Am     Ab
  Jag vill inte vara rädd
F                        Fm
  Varför måste jag vara rädd?


Under refrängen:
e ---------------------
B --5----8-------------   
G ----5----7--5---5-7--
D --------------5------  2x
A ---------------------
E ---------------------

e ----------------------------
B --5----8----8-9----8-9-8-9--
G ----5----7------9-----------
D ----------------------------
A ----------------------------
E ----------------------------


e ----7---7---7---7---5---5---5---5--
B --8---8---8---8---6---6---6---6----
G -----------------------------------
D -----------------------------------
A -----------------------------------
E -----------------------------------

e -----------------------------------
B -----------------------------------
G -----------------------------------
D --7-7-7-7-7-7-7-7------------------
A --5-5-5-5-5-5-5-5-8-8-8-8-8-8-8-8--
E ------------------6-6-6-6-6-6-6-6--


           C               G         Am      Ab
  Somliga vet att dom är starkare än andra
          C               G             Am      Ab
  Somliga älskar att slå sönder en vit tandrad
           C             G     Am       Ab
  Somliga lever för att pina varandra
  G                       F
  Innerst inne är vi likadana
                Dm                         Bb
  Jag tror att människor gör så av gammal vana


C                Am7
  Under kepsar & mössor
    F                         Bm
  blinkar ögon som ögon ska blinka
       C               Am7
  Han gör det utan att tänka
        F           Bm
  Lika lätt som det är att vinka farväl

F          G7         Am      Ab
  Jag vill inte vara rädd
   F                     Fm
  Varför måste jag vara rädd?

           C               G         Am      Ab
  Somliga vet att dom är starkare än andra
          C               G            Am       Ab
  Somliga älskar att slå sönder en vit tandrad
           C             G      Am      Ab
  Somliga lever för att pina varandra
  G                       F
  Innerst inne är vi likadana
                Dm 
  Jag tror att människor gör så av gammal vana


Solo: |Am   |C     |F   Em  |Dm  Bb  |
      |Am   |C     |F   Em  |Dm      |
      |B    |B     |

Solo:
e -------------------------------------------------
B -------------------------------------------------
G --5-5-5-5-4---5----------------------------------
D ------------7---5-3-2--2-3-5-2--2-2-2------------
A --------------------------------------5-3-5------
E -------------------------------------------------

e -------------------------------------------------
B -------------------------------------------------
G --5-5-5-7-5-7-9b-9b-9b-9b------------------------
D ---------------------------2-3-5-2--2-2-2--------
A ------------------------------------------5-3-5--
E -------------------------------------------------