Kent.nu — Officiell hemsida för Sveriges största rockband

Livräddaren

Text: J. Berg
Musik: J. Berg / M. Sköld

Text

Jag räddar ditt liv
Du är bländad & vit
Jag bromsar på is
Du har frusit mitt i
Ge mig en chans
att drömma om ibland
någonstans
i nästa liv…

Jag räddar ditt liv
Jag bromsar i tid
Du har frusit mitt i
Jag är iskall inuti
Ge mig en chans
att drömma om ibland
någonstans
i nästa liv…

Ackord

Intro: |n.c.   | 4x
       |E  Am  |E  D   | 2x
       |E      |E      |

e -------------------5-------5-4---------3-2-----
B --------5------------------5---5-------3---3---
G -----7-----7--5/4----4-----4-----4-----2-----2-
D -----------------------------------------------
A -----------------------------------------------
E --0--------------------------------------------

e -------------
B --------5----
G -----7-------
D -------------
A -------------
E --0----------

      Em           Am
  Jag räddar ditt liv
                     Em
  Du är bländad och vit
                 Am
  Jag bromsar på is
          Am         G
  Du har frusit mitt i
            D                      Am
  Ge mig en chans att drömma om ibland
        Cm
  någonstans, i nästa liv...

|E  Am  |E  D   | x2

      Em           Am
  Jag räddar ditt liv
                 Em
  Jag bromsar i tid
                     Am
  Du har frusit mitt i
         Am         G
  Jag är iskall inuti
           D                       Am
  Ge mig en chans att drömma om ibland
         Cm
  någonstans, i nästa liv...

|Em     |D      |Em     |A      |
|Cmaj7  |D      |

|Em Am  |E   D  | 2x

|Em     |D      |Em     |A      |
|Cmaj7  |D      |

|E  Am  |G   D  | 2x

|Em Am  |E   D  | 2x

|n.c.   | 4x

|Em  Am |Em  D  | 8x

Em

Kommentar: n.c. = no chord, Cmaj7 = x32000