Kent.nu — Officiell hemsida för Sveriges största rockband

När det blåser på månen

Text: J. Berg
Musik: M. Sköld

Text

Kostymen den skaver
och jag
har inte duschat
idag är igår
och idag ska jag sitta kvar
Jag fuskade med mina svar
Den svarta kostymen ska av
Kostymen är inte jag
Kostymen är inte jag
är jag en Astronaut?
är jag en Astronaut?
är jag en Astronaut?
är jag så ensam?

Klänningen skaver
och du
den skyler knappt barmen
Idag är igår
och du ska ta mig härifrån
nu när det blåser på månen
ska du ta mig härifrån?
nu när vi fyllt alla hålen
nu när vi fyllt alla hål
är jag en Astronaut…

Ackord

Intro: |F  G  |Am  G  | 2x


 Munspel (här som gitarrtab):
    F       G       Am      G
e -------1--3----1--0----3--7---5--
B ---------------------------------
G --2------------------------------ x2

    n.c.               
e --0-----0-----3--
B ----4-----4------
G ------0-----0----


Fmaj7            Dm7
  Kostymen den skaver
       C      Dm7  Dm7/E
  och jag      
Fmaj7       Dm7
  har inte duschat 
    C  Em7  Am
  idag är igår     

       Dsus     Dm         C
  och idag ska jag sitta kvar 
       Em7              Am
  Jag fuskade med mina svar
        Dsus     Dm       C
  Den svarta kostymen ska av  
      Em7           Am
  Kostymen är inte jag 
      Dsus          Dm
  Kostymen är inte jag 

Dm/E        F            G
  är jag en astronaut
            Am           G
  är jag en astronaut
            F            G
  är jag en astronaut
            Am    G
  är jag så en - sam

|F  G  |Am  G  | 2x

                        (under versen)
e --0-----0-----3--------5----12----15--------3----5----0--
B ----4-----4----------------------------------------------
G ------0-----0--------------------------------------------


Fmaj7          Dm7
  Klänningen skaver
       C    Dm7  Dm7/E
  och du       
Fmaj7                Dm7
  den skyler knappt barmen
    C  Em7  Am
  Idag är igår     

      Dsus       Dm       C
  och du ska ta mig härifrån  
  Em7                   Am
  nu när det blåser på månen  
      Dsus   Dm       C
  ska du ta mig härifrån
  Em7                   Am
  nu när vi fyllt alla hålen  
  Dsus                  Dm
  nu när vi fyllt alla hål

Dm/E        F            G
  är jag en astronaut
            Am7          G
  är jag en astronaut
            F            G
  är jag en astronaut
            Am    G
  är jag så en - sam

|F  G  |Am  G  | 2x


e --0-----0------
B ----4-----4----
G ------0-----0--


solo: |F   G   |Am   G   | 2x
      |F   G   |Am   G/B |
      |F/C G/D |Am/E G   | 3x
      |F   G   |Am       |

Komentar: n.c. = no cord

Solo:
e-12-12121212-12-12121212- x3 -------------------------
B-------------------------    -12-12121212-12-12121212- 

e-12-12121212-12-12121212- x3 -------------------------
B-------------------------    -12-12121212-12-12121212- 

e-12-12121212-12-12121212- x3 -------------------------
B-------------------------    -12-12121212-12-12121212- 

e-0-0000-0-0000- x3 -------------------------
B---------------    -12-12121212-12-12121212-

e-12-12121212-12-12121212- x3 -------------------------
B-------------------------    -12-12121212-12-12121212- 

e-15-15151515-15-15151515- x2 -17-17171717-17-17171717- x2

De två sista takterna har jag inte skrivit ner, för det går inte,
det är bara att röja allt man förmår på alla strängar. Detta solo
byggs ju upp mer och mer med hjälp av spelstyrka och våldsamhet och
dyl, så nogranheten i de sista raderna är inte så viktig.