Kent.nu — Officiell hemsida för Sveriges största rockband

Om du var här

Text: J. Berg
Musik: J. Berg

Text

Tid… du är dig inte lik
Min knutna hand i fickan
Sömn… jag kräver ingen sömn
Jag vrider mig på nålar

Refr.
Om du var här
Om du var här
Om Jag var där
Om du var här
Idag, igår
Om du var här
Inuti & utanför
Om du var här
Idag, igår

Tid… allt ska bli som då
Jag nöjer mig med tystnad
Språk… jag behöver inget språk
med tiden på min sida

Om du var här
Om du var här
Om Jag var där
Om du var här
Idag, igår
Om du var här
Inuti & utanför
Om du var här
Idag, igår igen

Tid… & all min energi
slösar jag på nålar…
Refr.

Ackord

Intro:

  |F#m            |F#m                 |
e |---------------|-4---2--------------|
B |---2---3---2---|---------3---2----2-|
G |-----2---2---2-|---2---2---2---2----|
D |-4-------------|--------------------|
A |---------------|--------------------|
E |---------------|--------------------| 4x


Under versen:
   F#m   F#m/F  F#m/E     Dmaj7   Bm7      F#m
e ----------------4-2---------------------------------
B -----2--------------2---------------3-----3-2--------
G ---2------------------------------2-----------2------
D -4------------------------------4------------------(4)  <--2:a gången
A --------------------------------------------------
E --------------------------------------------------

   F#m    F#m/F
  Tid...
     F#m/E        Dmaj7
  du är dig inte lik
       Bm7          F#m
  Min knutna hand i fickan

  F#m    F#m/F
  Sömn...
        F#m/E      Dmaj7
  jag kräver ingen sömn
       Bm7           Dmaj7
  Jag vrider mig på nålar


     F#m
  Om du var här

  om du var här, om jag var där
      D           A    E/G#
  Om du var här idag, igår
     F#m
  Om du var här, inuti och utanför
      D           A    E/G#
  Om du var här idag, igår


   F#m    F#m/F
  Tid...
  F#m/E               Dmaj7
  allt skall bli som då
      Bm7            F#m
  Jag nöjer mig med tystnad

  F#m       F#m/F
  Språk...
         F#m/E        Dmaj7
  jag behöver inget språk
      Bm7           Dmaj7
  Med tiden på min sida

     F#m
  Om du var här

  om du var här, om jag var där
      D           A    E/G#
  Om du var här idag, igår
     F#m
  Om du var här, inuti och utanför
      D           A   E/G#
  Om du var här idag, igår, igen


Solo: (se tab nedan)


|C#m   |C#m   |D     |D     |
|A     |A     |E/G#  |E/G#  |  2x

      |F#m   |F#m   |

  F#m    F#m/F
  Tid...
      F#m/E        Dmaj7
  och all din energi
   Bm7           Dmaj7
  Slösar jag på nålar

     F#m
  Om du var här

  om du var här, om jag var där
      D           A   E/G#
  Om du var här idag, igår
  F#m       F#m/F
  Om du var här,
  F#m/E     F#m/D
  inuti och utanför
     Bm7        Dmaj7  Bm7
  Om du var här idag, igår, igen...


  |F#m    |F#m/F  |F#m/E  |F#m/D  |
  |Bm7    |Bm7    |Dmaj7  |Dmaj7  |

  F#m



Kommentar: Dmaj7 = xx0222, Bm7 = x24232,
           F#m/x = Gitarrer spelar F#m (244222)
           samtidigt som basen spelar tonen efter snedstrecket.
           Spela introriffet under hela refrängen förutom när man
           när man sjunger "idag, igår", men i allra sista refrängvändan 
           (den med annan ackordföljd) spelar man detta riff även där och 
           ända till slutet.


Solo:

e |---------------------------------------------------------------------|
B |---------------------------------------------------------------------|
G |--b11---11b---b11*-----11b---9-----------------------------------9---|
D |----------------------------------/12-11-11-9-(7)-9----------9-11----|
A |------------------------------------------------------9-9h12---------|
E |---------------------------------------------------------------------|


e |---------------------------------------------------------------------|
B |---------------------------------------------------------------------|
G |--b11---11b*---b11**----11b---9--------------------------------------|
D |----------------------------------/12-11-11-9-(7)-9\-----------------|
A |---------------------------------------------------------------------|
E |-------------------------