Kent.nu — Officiell hemsida för Sveriges största rockband

Önskar att någon

Text: J. Berg
Musik: J. Berg

Text

Vad var det du såg igår natt
Du har nästan inga naglar kvar
Vad är det som tvingar dej att
Bita sönder dom du har spart

Och jag har ledsnat på att vänta
ärligt talat jag är trött
Du är TV-ögd, förändrad
du är gråtmild du ser rött

Jag har ledsnat på att vänta
på dom ständiga problemen med sömn
Behöver nån som behöver mej

Vad fick du se igår natt
Någonting du inte klarar av
Vad är det som tvingar dej att
tvinga mej att stanna kvar

Och jag har ledsnat på att vänta
ärligt talat jag är så trött
Du är TV-ögd, förändrad
du är gråtmild du ser rött

Jag har ledsnat på att vänta
på dom ständiga problemen med sömn
Behöver nån som behöver mej

Ackord

Intro: |F    |F    |


F                 C           
  Vad var det du såg igår natt
Dm                           Bb
  Du har nästan inga naglar kvar
F                  C
  Vad är det som tvingar dej att
Dm                        Am
  Bita sönder dom du har spart


Bb                            F  
  Och jag har ledsnat på att vänta
          C            Bb
  ärligt talat jag är trött
                   F
  Du är TV-ögd, förändrad
          C              Bb  
  du är gråtmild du ser rött
                          F
  Jag har ledsnat på att vänta
           C                 Bb
  på dom ständiga problemen med sömn
Gm
  Behöver nån som behöver mej  

|Dm   |n.c. |

|Dm   |Bbm  |Gm   |A7   |
|Dm   |C    |Gm   |A7   | 


F              C         
  Vad fick du se igår natt
Dm                         Bb
  Någonting du inte klarar av
F                  C 
  Vad är det som tvingar dej att
Dm                       Am
  tvinga mej att stanna kvar

Bb                            F  
  Och jag har ledsnat på att vänta
          C            Bb
  ärligt talat jag är så trött
                     F
  Du är TV-ögd, förändrad
          C              Bb  
  du är gråtmild du ser rött
                          F
  Jag har ledsnat på att vänta
           C                 Bb
  på dom ständiga problemen med sömn
Gm
  Behöver nån som behöver mej  

|n.c. |

|Dm   |Bbm  |Gm   |A7   |
|Dm   |C    |Gm   |A7   |   båda raderna 2x 

Dm


Kommentar: n.c. = no chord. Bb = x13331, Bbm = x13321, Gm = 355333
           Den akustiska kompgitarren är egentligen nedstämd i D
           och första ackordet blir då G.


Tabulatur till solo efter refrängerna:

Gitarr 1:
   n.c.
e|------------------------------|
B|------------------------------|
G|-----------------------5------|
D|-7--7/8-7--5----7--7/8----5---|
A|------------------------------|
E|------------------------------|

   Dm                             Bbm
e|------------------------------|----------------------|
B|------------------------------|----------------------|
G|------------------------------|----------------------|
D|-7--7/8-7--5----7--7/8-7--5---|-5-5/6-5-3--5-5/6-5-3-|
A|------------------------------|----------------------|
E|------------------------------|----------------------|
  
   Gm                             A7
e|------------------------------|----------------------|
B|------------------------------|----------------------|
G|------------------------------|----------------5-----|
D|-5-5/6-5-3-0-3--5-5/6-5-3-0-3-|-7-7/8-7-5--7-7---8---|
A|------------------------------|----------------------|
E|------------------------------|----------------------|

   Dm                             C
e|------------------------------|------------------------------|
B|------------------------------|------------------------------|
G|------------------------------|------------------------------|
D|-5--5/6-5--3----5-5/6-5-3-----|-5-5/6-5-3------5-5/6-5-3-0-3-|
A|------------------------------|------------------------------|
E|------------------------------|------------------------------|

   Gm                             A7
e|------------------------------|----------------------|
B|------------------------------|----------------------|
G|------------------------------|----------------5-----|