Kent.nu — Officiell hemsida för Sveriges största rockband

OWC

Text: J. Berg
Musik: J. Berg

Text

Jag lyssnar efter regn
Elektricitet i luften
& det var så längesen
att jag glömt bort
hur det känns
att komma hem

Samlar tankar till försvar
på min bäddade säng
gör jag en plan
Med rakat huvud
står jag klar
på frivilliga ben
Vad var det?
Är det dags att ge sig av?

Ackord

intro: |Bm    |D9    |G   Em7 |D  |F#m    | 2x

  Bm               D9          Gmaj7    Em7          D         F#m
e 
----10--9--7--5--0-2---0-----0-2------10--9--7--5--0-2-5--------5------5----
B 
-0------------------------3------3------------------------3--2-----2-3---2--
G 
----------------------------------------------------------------------------
D 
----------------------------------------------------------------------------
A 
----------------------------------------------------------------------------
E 
---------------------------------------------------------------------------- 
2x


Bm                  D9
  Jag lyssnar efter regn
    G       Em7
  Elektricitet
D    F#m
  i luften
Bm                     D9
  och det var så länge sen
                 G           Em7
  att jag glömt bort hur det känns
D          F#m      F# *
  att komma  hem

|Bm    |D9    |G   Em7 |D  |F#m    |

Gitarr 1:
e -------------------------------------------      ------------------
B -------------------------------------------      ------------------
G --------7--6-------------------------------      ------------------
D -----9--------7------------9------7--------      ------------------
A --9---------------9------7-----------9--7--      --7/9-------------
E ------------------------------------------- 2x   ------------------

Gitarr 2:
e --------10--9------------------------------      ------------------
B -----12-------10-----------12-----10-------      ------------------
G --11-------------11------9-----------11-9--      --9/11------------
D -------------------------------------------      ------------------
A -------------------------------------------      ------------------
E ------------------------------------------- 2x   ------------------

Bm                       D9
  Samlar tankar till försvar
          G      Em7
  på min bäddade säng
D           F#m
  gör jag en  plan
Bm                         D9
  Med rakat huvud står jag klar
         G        Em7
  på frivilliga ben
D         F#m
  Vad var det?

F# *
  Är det dags att ge sig av?

|Bm    A   |G    D   | 4x
|Em7       |Gmaj7    |
|Bm  Bsus2 |Bsus  B  |


* F#sus (244422) och F# (244322) om vartannat, spelas lämpligen:

e --------------------------
B --------------------------
G --4--3--4--3--4--3--4--3--
D --4--4--4--4--4--4--4--4--
A --------------------------
E --------------------------


Kommentar: D9 = x5455x, Bsus2 = x24422, Bsus = x24452, Gmaj7 = 3x443x