Kent.nu — Officiell hemsida för Sveriges största rockband

Rollercoaster

Text: J. Berg
Musik: J. Berg

Text

On the highway there’s no traces left
all accidents and incidents
The Christmas snow had slipped his mind
as ever the forgetful kind

Chorus:
If I fall
will you be there to catch me if I fall
When I fall
Will you be there to catch me when I fall

Down x8
I’m going down
Down x6

The radio plays cover songs
new lyrics, sex and sing-alongs
Suddenly I lost my friends
They don’t call me and I don’t call them

Chorus

Down x8
I’m going down
Down x7

Nothing matters if you stay here, hold me tight
All those memories will be lost in time
Nothing matters if you stay here, hold me tight
All those memories will be lost in time

Like tears in the rain x4

I need you now(like tears in the rain) I need you now x3

I need you now
I need you
I need you now
I need you now

Ackord

intro: |n.c.  |Am    |Em    |Am    |Em    |
              |Am    |Em    |C     |C     |

   Am            Em                   C
e--------------------------------    -------------------
B-------0------------------------    -------------------
G---5------5---0-------0---------    --------0----------
D-----7------7-----0-------0---0-    ---0-------0----0--
A-0------------------9---9---9---    -----10------10----
E----------------7--------------- x3 -8----------------- x2


          Am                  Em
  On the highway there's no traces left
      A7/C#         C
  All accidents and incidents 
         Am                Em
  The Christmas snow had slipped his mind
     A7/C#        C
  As ever the forgetful kind 

|C    |

        Am
  If I fall
Em                      Am             Em
  Will you be there to catch me if I fall
D         Am
  When I fall
Em                      C               G      D/F#
  Will you be there to catch me when I fall 


 Gitarr:
G-5-3-4-0---------5-3-4-0-------------5-3-4-0---------5-3-4-0------------
D----------/7--5-----------/2--0---------------/7--5-----------/2--0-----
A---------------------------------3-----------------------------------0--

|C     |D     |Em    |D     | 2x


|Am    |Em    |Am    |Em    |
|Am    |Em    |C     |C     |


       Am          Em
  The radio plays cover songs
       A7/C#           C
  New lyrics, sex and sing-alongs
   Am         Em
  Suddenly I lost my friends
        A7/C#               C
  They don't call me and I don't call them 

|C    |

        Am
  If I fall
Em                      Am             Em
  Will you be there to catch me if I fall
    D     Am
  When I fall
Em                      C               G      D/F#
  Will you be there to catch me when I fall 


 Gitarr:
G-5-3-4-0---------5-3-4-0-------------5-3-4-0---------5-3-4-0------------
D----------/7--5-----------/2--0---------------/7--5-----------/2--0-----
A---------------------------------3-----------------------------------3-- 2x

|C    |D    |Em   |D    | 4x


C                          D                 Em      D
  Nothing matters if you stay here, hold me tight
C                     D               Em      D
  All those memories will be lost in time
C                          D                 Em      D
  Nothing matters if you stay here, hold me tight
C                     D               Em
  All those memories will be lost in time
        D             C      D      Em
  Like tears in the rain
        D             C      D      Em
  Like tears in the rain
        D             C      D      Em
  Like tears in the rain
        D             C
  Like tears in the rain
D    Em
  I need you now (like tears in the rain)
D    C
  I need you now
D    Em
  I need you now (like tears in the rain)
D    C
  I need you now
D    Em
  I need you now (like tears in the rain)
D    C
  I need you now
D    Em    D       C
  I need...   you now 
D    Em
  I need you
D    Am
  I need you now 
Em/B Am
  I need you now

|Em/B  |Am    |Em    |C     |C#dim |Dm


   Am               Em                       Am               Em
e|----------------|------------------|     |----------------|-----------------|
B|-------0--------|------------------|     |-------0--------|-----------------|
G|---5------5---0-|-------0----------|     |---5------5---0-|-------0---------|
D|-----7------7---|---0-------0---0--|     |-----7------7---|---0-------0---0-|
A|-0--------------|-----9---9---9----|