Kent.nu — Officiell hemsida för Sveriges största rockband

Vad två öron klarar

Text: J. Berg
Musik: J. Berg

Text

Tabletter på nattduksbord ögonlock tunga
hon kan inte vakna än
Porrfilmer, fotografier tunna som drömmar
Askfat & burkar & tomma glas väntar
på att tömmas & fyllas igen
Dammiga fönster & persienn mönster på golven

Hallå… Hallå igen
Svara mig snälla svara är det nån här?
Hallå… är du kvar än?
Om du vågar knysta så skriker jag högre
än vad två öron klarar

Fläckar på golvet och sprickor i kaklet
Hon kan inte vakna än
Naken i treveckorslakan tunna som drömmar
skärmen på TV:n och krukväxter väntar
på att tömmas & fyllas på igen
Hon sover hon väntar på att tömmas & fyllas igen

Hallå… hallå igen
Svara mig snälla svara är det nån är?
Hallå… är du kvar än?
Om du vågar knysta gör jag nåt värre
än vad två ögon klarar

Ackord

Intro:
|Asus2 |Asus2 |Asus2 |Asus2 |

e -------------------
B --------0-------0--
G -------------------
D -----2-------2-----
A --0-------0--------  4x
E -------------------  

      F#m                   A
  Tabletter på nattduksbord ögonlock tunga
      D        E     F#m    A
  hon kan inte vakna än
   Bm          E     F#m   E         Asus2
  Porrfilmer, fotografier tunna som drömmar
  F#m                A
  Askfat & burkar & tomma glas väntar
          D        E      F#m     A
  på att tömmas & fyllas igen
   Bm       E         F#m     E          Asus2  
  Dammiga fönster & persiennmönster på golven


      D
  Hallå... Hallå igen
    A        E/G#     F#m        E
  Svara mig snälla svara är det nån här?
      D
  Hallå... är du kvar än?
     A         E/G#       F#m        E
  Om du vågar knysta så skriker jag högre
          D         E
  än vad två öron klarar

|Asus2 |Asus2 |

   F#m                    A
  Fläckar på golvet och sprickor i kaklet
       D        E        F#m     A
  Hon kan inte vakna än
   Bm       E        F#m    E         Asus2
  Naken i treveckorslakan tunna som drömmar
   F#m                 A
  skärmen på TV:n och krukväxter väntar
          D        E         F#m    A
  på att tömmas & fyllas på igen
       Bm         E             F#m      E     Asus2
  Hon sover hon väntar på att tömmas & fyllas igen


      D
  Hallå... hallå igen
    A        E/G#     F#m        E
  Svara mig snälla svara är det nån här?
      D
  Hallå... är du kvar än?
     A         E/G#  F#m          E
  Om du vågar knysta gör jag nåt värre
          D         E
  än vad två ögon klarar 

|Asus2 |Asus2 |

Solo: 

  F#m          A           |D     E          F#m      A
e|-------------------------|---------------|-------------------
H|---------14----------14--|---------------|-------------------
G|-13--b14-----13--b14-----|---------------|-------------------
D|-------------------------|-12---12--14---|--11~--------------
A|-------------------------|---------------|-------------------
E|-------------------------|---------------|-------------------

   Bm    E      F#m    E     Asus2
e|------------|-------------|-----------|-------------
B|------------|-------------|-----------|-------------
G|------------|-------------|--7--6-----|--4--2-------
D|-------6----|--7-----9----|-----------|-------------
A|--9---------|-------------|-----------|-------------
E|------------|-------------|-----------|-------------


      D
  Hallå... hallå igen
    A        E/G#     F#m        E
  Svara mig snälla svara är det nån här?
      D
  Hallå... är du kvar än?
     A         E/G#  F#m          E
  Om du vågar knysta gör jag nåt värre
          D         E
  än vad två ögon klarar 

|Asus2 |Asus2 |


Kommentar: Asus2 = x02200


  "porrfilmer, fotografier tunna som drömmar"
e|------------------------------------------------
B|--7---7-7--5---5-5--10--10-10--9---9-9----------
G|----------------------------------------7--6----
D|--4---4-4--2---2-2--7---7--7---6---6-6----------
A|------------------------------------------------
E|------------------------------------------------

  "dammiga fönster och persiennmönster på golven"
e|-------------------------------------------------------
B|--7---7-7--5---5-5--10--10-10--9---9-9-----------------
G|----------------------------------------7--6----4--2---
D|--4---4-4--2---2-2--7---7--7---6---6-6-----------------
A|-------------------------------------------------------
E|-------------------------------------------------------