Kent.nu — Officiell hemsida för Sveriges största rockband

Välgärningar & illdåd

Text: J. Berg
Musik: J. Berg

Text

Du kom till mig mitt i en dröm
och sa: rädda mig håll mig gömd
Jag väntar där en mardrömsnatt
Jag hör hur dom går, jag hör dörrar slå
Ett rep i min hand och regn i mitt hår

Det är dåd som det här
som förföljer mig var jag än går
och jag flyr i skydd av mitt privata moln
Jag ska stjäla en skatt
Den som döljer sig vid regnbågens slut
Den är min, den är du

Kom med mig, inte ett ljud
Han sover lätt med tända ljus
Så klättra nu, här ta min hand
Och känn hur mitt blod viskar sanning om mig
En snabb kolsvart flod som rusar för dig

Det är dåd som det här
som förföljer oss var vi än går
och vi flyr i skydd av vårt privata moln
Vi ska stjäla en skatt
Den som döljer sig vid regnbågens slut
Ett perfekt substitut

Ackord

Intro:

e|----------------|------3---------|------3--------|------0h1------|
B|--0---1---0-----|--1-------1-0-1-|--1-0-----1---1|----1-----1---1|
G|----------------|----2-----------|0-----------0--|--2---------2--|
D|----2---2---2---|3---------------|---------------|3--------------| x2
A|0---------------|----------------|---------------|---------------|
E|----------------|----------------|---------------|---------------|


   Am                F   G
Du kom till mig mitt i en dröm 
       F          E      Am
Och sa: rädda mig håll mig gömd
    Am            F     G
Jag väntar där en mardrömsnatt
    Am/F#        Am/F         Am
Jag hör hur dom går, jag hör dörrar slå
     Am/F#     Am/F                
Ett rep i min hand och regn i mitt hår


| Am   | Fadd9 | G     | Dm    |


      F             Dm
Det är dåd som det här
        C         G/B G        F
som förföljer mig vart jag än går
         E7                     Am        D7
och jag flyr i skydd av mitt privata moln
         F          Dm
Jag ska stjäla en skatt
         C          G/B G          F
Den som döljer sig vid regnbågens slut
        E7        
Den är min, den är du


Mellanspel:

 |Am              |Fadd9           |G               |Fmaj7           |
e|--------0-------|----------------|----------------|----------------|
B|2---------------|3-------1-------|0---------------|----------------|
G|----------------|----------------|----------0---2-|----------------|
D|----------------|----------------|------------2---|----------------|


 Am            F    G
Kom med mig, inte ett ljud
    F               E7  Am
Han sover lätt med tända ljus
   Am              F    G
Så klättra nu, här ta min hand
    Am/F#          Am/F        Am
Och känn hur mitt blod viskar sanning om mig
   Am/F#           Am/F
En snabb kolsvart flod som rusar för dig


| Am   | Fadd9 | G     | Dm    |


      F             Dm
Det är dåd som det här
        C         G/B G        F
som förföljer oss vart vi än går
        E7                     Am        D7
och vi flyr i skydd av vårt privata moln
          F          Dm
Vi ska stjäla en skatt
         C          G/B G          F
Den som döljer sig vid regnbågens slut
        E7   
Ett perfekt substitut


 |Am        F    G|G               |F         Em  Am|Am              |
B|----------------|----------5-5-5-|5-5-5-5-5-5-5-5-|5-5-5-5-5-5-5-5-|

 |Am        F    G|G               |F         Em  Am|Am              |
B|5-5-5-5-5-5-5-5-|5-5-5-5-5-5-5-5-|5-5-5-5-5-5-5-5-|5-5-5-5-5-5-5-5-|

Utrot börjar med endast gitarr
Gitarrslingan (tonen på femte bandet) ska börja svagt för att nå sitt max
till dess att nedanstående slinga kommer in. Här kommer även resten av bandet igång
Tonen på femte bandet ligger kvar genom hela utrot

 |Am        F    G|G               |F         Em  Am|Am              |
e|----------------|----------------|----------------|----------------|
B|------1---------|----------------|------1---0-----|----------------|
G|--2-------2---0-|----------------|--2-----------2-|----------------|
D|----------------|----------------|----------------|----------------|

B|5-5-5-5-5-5-5-5-|5-5-5-5-5-5-5-5-|5-5-5-5-5-5-5-5-|5-5-5-5-5-5-5-5-|
  • dc_art13

    eftersom era låtar har betytt oerhört mycket för mig har jag en förfrågan till er. just nu skriver jag en bok om ett livsöde där utvalda delar ur era texter passar in. därför undrar jag om jag får citera delar av ett par av dessa? källhänvisar till Kent. finns det något hinder? copyright? har inget förlag ännu och har skrivit under pseudonym då berättelsen är självupplevd. tacksam för svar. ödmjukast C