Kent.nu — Officiell hemsida för Sveriges största rockband

What it feels like

Text: J. Berg / Terry Cox
Musik: J. Berg

Text

(Detta är den engelska versionen av Kräm)

Nail your spine into my back
You are in me
I’m your breathing as you crack
Into that sad and scary smile
So this is what it feels like…
this is what it feels like

I’m the one that sucks you dry
Drowning in you
I am every tear you cry
I am someone else tonight
And this is what it feels like…
this is what it feels like

I take you down, I give you back
Softly, slowly
I leave you breathing as you crack
Into that sad and scary smile
Knowning what it feels like…
this is what it feels like

Ackord

Intro:
|F    |Dm   |Bb   |Bb   | 2x

e|-----------------------------------------------|
b|------------1----------------------------------|
g|-1/2~-----2------------------------------------|
d|--------------2~-----2-3-0-----0-------------- |
a|---------------------------------3~---1-0------|
E|------------------------------------------3-1--|

/ = slide
~ = vibrato


     Dm               Bb
    Nail your spine into my back

     F     F/A  Bb   C
    You are    in me

     Dm                 Bb
    I'm your breathing as you crack

     F  F/A       Bb             C
    Into    that sad and scary smile

    So this is what it feels like

    |F    |Dm   |Bb   |Bb   |

    this is what it feels like

    |F    |Dm   |Bb   |Bb   |


    Dm                 Bb
    I'm the one that sucks you dry

      F      F/A  Bb   C
    Drowning    in  you

    Dm          Bb
    I am every tear you cry

    F   F/A  Bb             C
    I am    someone else tonight

    And this is what it feels like

    |F    |Dm   |Bb   |Bb   |

    This is what it feels like

    |F    |Dm   |Bb   |Bb   |

    This is what it feels like


Solo:

   F                    Am       Gm
e ---------8---8---8----b10--8----------------
b -/10-10---10--10--10-----------b8-----------
g ----------------------------------10--7-----

   F                     Am       C
e ---------8---8---8-----b15--13--b12------------
b -/10-10---10--10--10----------------13--10-----
g -----------------------------------------------

   Bb                   Am
e --------8---8---8-----b10--8-------------------
b --8-10---10--10--10----------b8----------------
g ---------------------------------10--7---------

    Bb                  C
e --------8---8---8-----15-15-15-15-15----15-15-15-15-15--
b --8-10---10--10--10---15-15-15-15-15----15-15-15-15-15--
g --------------------------------------------------------


       Dm               Bb
    I take you down, I give you back

     F     F/A  Bb   C
    Softly    slowly

       Dm                  Bb
    I leave you breathing as you crack

    F   F/A      Bb              C
    Into   that sad and scary smile

    Knowing what it feels like

    |F    |Dm   |Bb   |Bb   |

    This is what it feels like

    |F    |Dm   |Bb   |Bb   |

    |F    |