Kent.nu — Officiell hemsida för Sveriges största rockband

About golden years

Text: J. Berg
Musik: J. Berg

Text

Sometimes it’s hard to make those noises disappear.
Inside my head, behind my eyes, between my ears.
You try to tell me it’s delusion and plain fear.
I close my eyes and just pretend I didn’t hear.

And I try.
Yes I try.
And I try so hard.
Time goes by,
Yes it flies when you try to catch a star.

I hate it when I’m sober and I love it when I’m drunk.
Everything is deadly, you get cancer in the sun.
I hear his voice and it is cigarettes and tears.
He is the thin, white duke singing about golden years

And I try.
Yes I try.
And I try so hard.
Time goes by,
Yes it flies when you try to catch a star.

Ackord

intro: |Eb    Ebm-5  |Eb         |
       |Fm11  Fm11-9 |Ebm-5 Eb   |

Eb                Ebsus2             Ebsus4      Eb
  Sometimes it’s hard to make those noises disappear
Fm11                        Bb7sus4
  Inside my head, behind my eyes, between my ears
Eb            Ebsus2         Ebm-5         Eb
  You try to tell me it’s delusion and plain fear
Fm11                           Bb7sus4
  I close my eyes and just pretend I didn’t hear

       Fm11
  And I  try
       Abmaj7
  Yes I  try
          Eb    Cm7
  And I try so hard
   Bb7sus4 Fm11
  Time goes by
        Abmaj7
  Yes it  flies when you try to catch a star

|Eb    Ebm-5  |Eb         |

     Eb               Ebsus2      Ebsus4            Eb
  I hate it when I’m sober and I love it when I’m drunk
  Fm11                           Bb7sus4
  Everything is deadly, you get cancer in the sun
Eb            Ebsus2          Ebm-5         Eb
  I hear his voice and it is cigarettes and   tears
Fm11                                Bb7sus4
  He is the thin, white duke singing   about golden years

       Fm11
  And I  try
       Abmaj7
  Yes I  try
          Eb    Cm7
  And I try so hard
   Bb7sus4 Fm11
  Time goes by
        Abmaj7
  Yes it  flies when you try to catch a star

|Eb    Ebm-5  |Eb         |

Tack


Kommentar: Låten bör egentligen spelas som tabulaturen nedan.

----------------------------------------------------------------------
Alternativ ackordvända, ett halvt tonsteg lägre = lättare att spela:

Intro: |D  Dm-5 |D     |Em7     |Dm-5  D   |

Vers:  |D  Dsus2 |Dsus4  D   |Em7    |A7sus4  |
       |D  Dsus2 |Dm-5   D   |Em7    |A7sus4  |

Refräng: |Em7    |Gmaj7   |D    |Bm7   A7sus4|
         |Em7    |Gmaj7   |
         
Dm-5 = xx0131, Em7 = 022030, Dsus2 = xx0230, Dsus4 = xx0233
A7sus4 = x02030, Gmaj7 = 320002, Bm7 = x24232       
----------------------------------------------------------------------           

Tabulatur:

Stäm ned låga E-strängen till D och sätt capo på band 6.

I tabulaturen räknar jag banden från capon, dvs. band 2 i tabulaturen
motsvarar band 8 på gitarrhalsen.

Intro:
e --0----0----0----0----0----0-----0-----0-------
B --2----2----1---------2----2-----2-----2-------
G --2----2----2---------2----2-----2-----2-------
D --2----2----1---------2----2-----2-----2-------
A --0----0----0---------0----0--0-----0-----0----
D -----------------------------------------------

e -----------0----0-----0----0----0---0---0------
B -----------3----3-----1----1----2---2---2------
G -----------2----2-----2----2----2---2---2------
D ---------0------------0----1----2---2---2------
A --0-h-2------------2--2----0-------------------
D -----------------------------------------------

Vers:
e --0-----0-----0-----0----0-----0-----0----
B --2-----2-----0-----0----3-----3-----2----
G --2-----2-----2-----2----2-----2-----2----
D --2-----2-----2-----2----2-----2-----2----
A --0--0-----0--0--0----0--0--0-----0-------
D ------------------------------------------

e -----------0----0-----0-----0----0----0----0----0----
B -----------3----3-----3-----3----0----0----0----0----
G -----------2----2-----2-----2----2----2----2----2----
D ---------0-----------------------0----0----0----0----
A --0-h-2------------2-----2-------2----2----2----2----
D ---------------------------------2----2----2----2----

e --0-----0-----0-----0-----0-----0-----0-----0--------
B --2-----2-----0-----0-----1-----1-----2-----2--------
G --2-----2-----2-----2-----2-----2-----2-----2--------
D --2-----2-----2-----2-----1-----1-----2-----2--------
A --0--0-----0--0--0-----0--0--0-----0--0--0-----0-----
D -----------------------------------------------------

e --0-----0-----0-----0--0----0-