Kent.nu — Officiell hemsida för Sveriges största rockband

Att presentera ett svin

Text: J. Berg
Musik: J. Berg

Text

Det kallas chocktillstånd
när orden bränns
inpå bara skinnet
och gång på gång mot asfalten
varför skrapa kinden mot väggarna
klämma fingrar i dörrarna
när benen
alltid bär tillbaka hit
för att presentera ett svin

Det kallas chocktillstånd
när tankar känns
och skär som bitar av glas
små, små sår under linningen
varför är du som jag
mot väggarna
står tvekande vid dörrarna
när benen alltid skakar dig tillbaka hit
för att presentera ett svin

Och jag önskar att allt fick plats
och jag önskar att allt fick plats
och jag önskar att allt fick plats
att presentera ett svin

Och jag önskar att allt fick plats
och jag önskar att allt fick plats
och jag önskar att allt fick plats

Ackord

intro: |A    |D    |A    |D     |

               A       Amaj7
  Det kallas chocktillstånd
      D
  när orden bränns
              A
  inpå bara skinnet
      Amaj7            D
  och gång på gång mot asfalten
                 A          E
  varför skrapa kinden mot väggarna
          A         E
  klämma fingrar i dörrarna
       A
  när benen   
  E                    D
  alltid bär tillbaka hit  
  Dm
  för att presentera ett svin


|A    |D    |F#m  |F    | 2x
|F    |

               A       Amaj7
  Det kallas chocktillstånd
       D
  när tankar känns
                          A
  och skär som bitar av glas 
  Amaj7               D
  små, små sår under linningen 
                    A
  varför är du som jag
       E
  mot väggarna    
         A           E
  står tvekande vid dörrarna 
       A             E                  D
  när benen alltid skakar dig tillbaka hit
  Dm
  för att presentera ett svin

|A    |A7   |Bm    |

          A                      Bm
  Och jag önskar att allt fick plats
          A                      Bm
  och jag önskar att allt fick plats
          A                      D
  och jag önskar att allt fick plats
Dm                     
  att presentera ett svin


|A    |D    |F#m  |F    |
|A    |D    |F#m  |E    |


Bm        A                      Bm
  Och jag önskar att allt fick plats
          A                      Bm
  och jag önskar att allt fick plats
          A                      Fmaj7   G6
  och jag önskar att allt fick plats 

Amadd9


Mellanspel nr1:
   A                       D                       F#m                  F
e|-17-16-------17-16-------17-16-------17-16-------17-16-------16-------17-15-------17-15--------
B|-------14-17-------14-17-------15-17-------15-17-------14-17----14-17-------13-15-------13-15--


Mellanspel nr2: 
  A                        A7                  
e|-17-16-------17-16-------15-12----------------
B|-------14-17-------14-17-------14-10-8--------
G|---------------------------------------9-6----
D|-------------------------------------------7--


Mellanspel nr3:
   A                       D                       F#m                  F
e|-17-16-------17-16-------17-16-------17-16-------17-16-------16-------17-15-------17-15--------
B|-------14-17-------14-17-------15-17-------15-17-------14-17----14-17-------13-15-------13-15--

   A                       D                       F#m                  E
e|-17-16-------17-16-------17-16-------17-16-------17-16-------16-------17-16-------17-16--------
B|-------14-17-------14-17-------15-17-------15-17-------14-17----14-17-------13-15-------13-15--


Kommentar: Amadd9 = x77500, G6 = x55430, Fmaj7 = x33210