Kent.nu — Officiell hemsida för Sveriges största rockband

Bas riff

Text: J. Berg
Musik: J. Berg

Text

På vägarna i natt
så jagar vi ifatt
Med karta & kompass
ingen vila, ingen rast

Vad som än har gjort mig elak, feg
Vad som än har hänt, är allt mitt fel
Vad som än har gjort dig vänlig, ren
Allting är försent

På vägarna i natt
kan jag hålla mig för skratt
Mitt leende som sköld
mot tårarna som föll

Vad som än har gjort mig elak, feg
Vad som än har hänt, är allt mitt fel
Vad som än har gjort dig vänlig, ren
Allting är försent

Vad som än har gjort mig elak, feg
Vad som än har hänt, är allt mitt fel
Vad som än har gjort dig vänlig, ren
Allting är försent

Vad som än har gjort mig elak, feg
Vad som än har hänt, är allt mitt fel
Vad som än har gjort dig vänlig, ren
Allting är försent

Ackord

Intro: Trummor 2 takter
       Trummor + bas + gitarr 4 takter

Bas:
G ----------------------------------
D ----------------------------------
A ---------1------------------------
E -3-3-3-3---3-3-3-1-3-3-3-1-3-3-3--

Gitarr i introt:
D --5-5---5---5-5--|--5---5-5---5---
A --5-5---5---5-5--|--5---5-5---5---


      Gm   F  Eb
  På vägarna inatt
      Eb   Cm7  Gm
  så jagar vi ifatt
      Gm     F     Eb
  med karta och kompass
        Eb    Cm7    Gm
  ingen vila, ingen rast


F                   Bb      Dm     Eb
     Vad som än har gjort mig elak, feg
                  Bb      Dm         Eb
     Vad som än har hänt, är allt mitt fel
                  Bb      Dm       Eb
     Vad som än har gjort dig vänlig, ren
     Cm
     Allting är försent

|Gm   |Gm   |     e|---3---------|
                  b|-----6-------|
                  g|-------3-----|
                  d|-------------|
                  a|-------------|
                  e|---------3---|


      Gm   F   Eb
  På vägarna inatt
          Eb    Cm7       Gm
  kan jag hålla mig för skratt
        Gm  F      Eb
  Mitt leende som sköld
      Eb  Cm7      Gm
  mot tårarna som föll


F                    Bb      Dm     Eb
     Vad som än har gjort mig elak, feg
                     Bb      Dm         Eb
     Vad som än har hänt, är allt mitt fel
                  Bb      Dm       Eb
     Vad som än har gjort dig vänlig, ren
     Cm
     Allting är försent


Solo: (se tab nedan)

|Eb   |Cm   |Bb    |D    |
|Eb   |Gm   |Cm Dm |

|Gm   |Gm   | 2x       e|---3---------|
                        b|-----6-------|
                        g|-------3-----|
                        d|-------------|
                        a|-------------|
                        e|---------3---| 2x



F                   Bb      Dm     Eb
     Vad som än har gjort mig elak, feg
                     Bb      Dm         Eb
     Vad som än har hänt, är allt mitt fel
                     Bb      Dm       Eb
     Vad som än har gjort dig vänlig, ren
     Cm            Eb
     Allting är försent

                 Bb      Dm     Eb
  Vad som än har gjort mig elak, feg
                  Bb      Dm         Eb
  Vad som än har hänt, är allt mitt fel
                  Bb      Dm       Eb
  Vad som än har gjort dig vänlig, ren
  Cm
  Allting är försent


|Gm   |Gm   |Gm   |Gm   | 2x



Solo:

e|------------------------------------------------------|
b|------------------------------------------------------|
g|--12---10------------------10-10/14--10--11-12-13-15--|
d|----------13-12-10---12-13----------------------------|
a|------------------------------------------------------|
e|------------------------------------------------------|



e|-------------------------------------------------|
b|-------------------------------------------------|
g|--15\---15\/-17\---17\/-15\---15\----------------|
d|-------------------------------------------------|
a|-------------------------------------------------|
e|-------------------------------------------------|


Kommentar: Cm7 = x35343