Kent.nu — Officiell hemsida för Sveriges största rockband

Beskyddaren

Text: J. Berg
Musik: J. Berg

Text

Jag försökte vara speciell
jagad smal & glansigt blek
men med fläckar är Jag född
Jag hade nästan glömt
Jag ville vara spirituell
En gnistrande personlighet
men det kräver att man har
gener & anlag
och det har inte Jag

& det tar 100-tals år
att dölja felen
Jag är ljusår ifrån
vanställd & skelögd
& det svider som klor
som nya munsår
Ett tredje klass får
när alla lyssnar på dig
Kan du beskydda mig?

Jag ville bara fly från mig själv
skära bort min otillräcklighet
men med fläckarna jag glömt
är redan dömd
Jag ville vara intellektuell
Berest, belevad äckligt ung
men arvet väger tungt
Gener & anlag
Allt var ett misstag

& det tar 100-tals år
att dölja felen
Jag är ljusår ifrån
vanställd & skelögd
& det svider som klor
som nya munsår
Ett tredje klass får
när alla lyssnar på dig
Kan du beskydda mig?

Kan du beskydda mig?
Kan du beskydda mig?
Kan du beskydda mig?
Snälla beskydda mig

Ackord

Se kommentar angående tonart.


Intro:

Gitarr 1:
   C               Fmaj7           Am              F
e|---------------|------------0--|---------------|------------0--|
B|-----1------1--|------------1--|-----1------1--|------------1--|
G|-0h2---2----0--|-----0------2--|-0h2---2----2--|-----0------2--|
D|------------2--|-0h2---2----3--|------------2--|-0h2---2----3--|
A|---------3-----|---------3-----|---------0-----|---------3-----|
E|---------------|---------------|---------------|---------------|
h = (hammer on) spela den första tonen, lägg sedan fingern på den andra
    utan att slå an den med plektrumet.

Gitarr 2:
e|--------------|---------------|---------------|--------------------|
B|--------1-----|---------------|--------/6-----|--------------------|
G|--------0-----|---------------|---------------|---------6------6\--|
D|--------3-----|---------/3----|---------------|--------------------|
A|--------------|---------------|---------------|--------------------|
E|--------------|---------------|---------------|--------------------|
   gitarr 2 spelar med slidehylsa


|C    |Fmaj7 |Am    |Fmaj7 |2x

   Gitarr1
e|-0-1-0-1-0-1-0-1-|-1-3-1-3-1-3-1-3-|-5-7-5-7-5-7-5-7-|-----------|
B|-----------------|-----------------|-----------------|-3---1-----|2x

       C              Fmaj7
  Jag försökte vara speciell
   G                Am
  jagad, smal och glansigt blek
Fmaj7       G             C
  men med fläckar är jag född
Fmaj7  G           Am     F   G
  jag hade nästan glömt

       C                F
  Jag ville vara spirituell
       G            Am
  en gnistrande personlighet
Fmaj7       G             C
  men det kräver att man har
Fmaj7     G     Am
  gener & anlag
Fmaj7      G
  och det har inte jag

|C    |C    |

             Am   Fmaj7  C           G
  & det tar hundratals år,  att dölja felen
           Am     Fmaj7  C                G
  jag är ljusår ifrån, vanställd och skelögd
          Am    Fmaj7      C         G
  & det svider som klor, som nya munsår
        Am    Fmaj7       C          G          Fmaj7
  Ett tredje klass får, när alla lyssnar på dig

  kan du beskydda mig?


|C    |Fmaj7 |Am    |Fmaj7 |

       C                        F
  Jag ville bara fly från mig själv
         G             Am
  skära bort min otillräcklighet
F           G             C     F
  Men med fläckarna jag glömt
  G            Am     F    G
  är jag redan dömd

       C                   F
  Jag ville vara intellektuell
     G             Am
  berest, belevad, äckligt ung
F     G            C
  men arvet väger tungt
F         G     Am
  gener & anlag
F               G
  allt var ett misstag

|C     |C     |


             Am   Fmaj7  C           G
  & det tar hundratals år,  att dölja felen
           Am     Fmaj7  C                G
  jag är ljusår ifrån, vanställd och skelögd
          Am    Fmaj7      C         G
  & det svider som klor, som nya munsår
        Am    Fmaj7       C          G          Fmaj7
  Ett tredje klass får, när alla lyssnar på dig
C            G            Am    Fmaj7
  kan du beskydda mig?
C            G            Am    Fmaj7
  kan du beskydda mig?
C            G            Am    Fmaj7
  kan du beskydda mig?
C           G
  kan du beskydda mig?

|Fmaj7 |Fmaj7 |

  Snälla beskydda mig...

|C    |Fmaj7 |Am    |Fmaj7 | 2x

C


Gitarr under