Kent.nu — Officiell hemsida för Sveriges största rockband

Den osynlige mannen

Text: J. Berg
Musik: J. Berg

Text

Fyll mig med luft igen
Gör mig synlig
Du får gärna avsky mig
om det gör mig tydlig igen

Om du vill visa dig igen
Om du vill komma hit igen
Om du vill röra mig igen
Så måste jag vara i färg

Fyll mig med vatten min vän
men håll mig flytande
Jag låter dig avsky mig
Det gör mig tydlig igen

Om du vill visa dig igen
Om du vill komma hit igen
Om du vill röra mig igen
Så måste jag vara i färg

Ackord

Gitarr 1:
  D           Em                D          Em
e|--0--------|-----------------|---------|-------------2h3p2-|
B|------2----|-3-3-2-2-----4---|-2-------|-3-3-2-2-----------|
G|-----------|---------4-4---4-|-----2---|---------4-4-------|

  D            Em                     G           A
e|-8/9--------|----------------------|-----------|-----2--3--|
B|-----10-----|-10-10----------------|-----------|-----------|
G|--------11--|-------12-12-11-11-12\|-4---4-4-0-|-2---------|


Gitarr 2:
  D           Em         D           Em
B|-5----2----|-3--------|-3---------|-----------|
G|-----------|----------|------2----|--4--------|

  D           Em           G           A
B|-5----2----|-3---1--0---|-0------0--|-----------|
G|-----------|------------|-----------|--2--------|

    |D    |Em    |D     |Em     |
    |D    |Em    |G     |A      |

   D            A         Em
  Fyll mig med luft igen
           A
  Gör mig synlig
   D           A          E
  Du får gärna avsky mig
                 Em  A   D
  om det gör mig tydlig igen

              Em       D/F#
  Om du vill visa dig igen
              G          D
  Om du vill komma hit igen
              Em        G
  Om du vill röra mig igen
      A
  Så måste jag vara i färg


    |D    |Em    |D     |Em     |
    |D    |Em    |G     |A      |


   D            A         Em
  Fyll mig med vatten min vän
             A
  håll mig flytande
D               A           E
  Jag låter dig avsky mig
              Em  A   D
  Det gör mig tydlig igen

              Em      D/F#
  Om du vill visa dig igen
              G          D
  Om du vill komma hit igen
              Em       G
  Om du vill röra mig igen
      A               D
  Så måste jag vara i färg


 Kommentar: 
Gitarr2 har en oktavpitch, det betyder att samma sak
klingar en oktav ner samtidigt som den ordinare stämman.
Låten finns även i en sk "Kazoo version" på 
B-sidor 95-00 skiva 2.