Kent.nu — Officiell hemsida för Sveriges största rockband

Kallt kaffe

Text: J. Berg
Musik: J. Berg

Text

Du är telefonen, kaffe
som drack så långsamt att det hann bli kallt
Jag är Nivea Blå om vintrarna
och tröjorna och vantarna
och allt som är kvar är
mina ögon som gör ont
Mina ögon gör så ont

Ditt huvud faller av om du står kvar
jag har stuckit mitt rakt ned i sanden
Lögner skär lätt av mig fingrarna
Dina skar bort två på vänster handen

Mina ögon gör så ont
Mina ögon gör så ont
Mina ögon gör så ont
Mina ögon gör så ont

Mina ögon gör så ont
Mina ögon gör så ont
Mina ögon gör så ont
Mina ögon gör så ont

=======

Väldigt få av Kents låttexter har fått en förklaring men den 17 september 2006 berättade Jocke vad Kallt kaffe handlar om. Detta skedde i forumet.

”Den är baserad på fyra fotografier på mig och min mamma på vinterpromenad utanför torshälla(lite bortom Torsharg).
Jag är typ ett år gammal och har en brun samemössa på mig(alla 70talister vet vad jag menar om det nu finns några kvar här).
Dessa foton var också ”omslag” till tidiga demos som jag klippte&klistrade ihop -93/94
Sen sammanföll själva textförfattandet med en period då mina kontaktlinser funkade skitdåligt.
För mycket cigg å sena nätter kanske?
Därav ögonen som gör ont.
Kände plötsligt för att berätta detta och jag skiter i om ngn tycker att jag förstör låten.”

Ackord

Intro: |D      |Em    |A/C#   |Bm    |
       |F#m    |G     |D      |D/C#  |
       |Bm     |Em    |A/C#   |G     |
       |D/F# D |Em    |A/C#   |A     |

       |[G#]   |[G#]  |G      |D     |
       |[G#]   |[G#]  |
       |Bm     |F#m   |Em     |Em  A |

  D  Em  A/C#       Bm
  Du är telefonen, kaffe 
       F#m              G                 D      D/C#
  som drack så långsamt att det hann bli kallt
  Bm  Em    A/C#       G     
  Jag är Nivea Blå om vintrarna
      D/F#   D      Em
  och tröjorna och vantarna 
      A/C#          A
  och allt som är kvar 

          [G#]         G       D
  är mina ögon som gör ont
       [G#]
  mina ögon gör så ont 

|Bm    |F#m  |Em    |Em  A  |


        D Em  A/C#       Bm
  Ditt huvud faller av om du står kvar
  F#m              G               D        D/C#
  jag har stuckit mitt rakt ned i sanden
   Bm Em  A/C#             G
  Lögner skär lätt av mig fingrarna
  D/F#   D        Em            A/C#      A
  Dina skar bort två på vänster handen

       [G#]            G       D
  Mina ögon gör så ont           x3
       [G#]            
  Mina ögon gör så ont  

|Bm    |F#m  |Em    |Em A  |


solo: |D      |Em    |A/C#   |Bm    |
      |F#m    |G     |D      |D/C#  |
      |Bm     |Em    |A/C#   |G     |
      |D/F# D |Em    |A/C#   |A     |

       [G#]            G       D
  Mina ögon gör så ont              x3
       [G#]            
  Mina ögon gör så ont  

|Bm    |F#m   |Em    |Em   | 3x

|Bm    |F#m   |
|Em    |Em    |Em    |Em   |

D


Kommentar: [G#] = enbart tonen G#

Intro och i slutet av verserna:
e -----------------------------------------------
B --10-10-10-10-10-10---5---5--5--5--5--5--5--5--  Dessa toner ska bändas sakta
G -----------------------------------------------  upp ett band under tiden man 
D -----------------------------------------------  spelar dom.
A -----------------------------------------------
E -----------------------------------------------

e --------------------------------
B -------------------------7--7---
G ------6--7------6--7------------
D --9---------9---------9---------
A --------------------------------
E --------------------------------


Solo:
e ---------------------------     -------------------------------
B ---------------------------     -------------------------------
G ---------------------------     -------------------------------  
D --4--5--7--5--4--------4---     -------------------------------
A -----------------5--7------     --5-5-5-5--5-7-7-4-4-4-4--4-4--
E --------------------------- 3x  -------------------------------

e ---------------------------     -------------------------------
B ---------------------------     -------------------------------
G ---------------------------     -------------------------------  
D --4--5--7--5--4--------4---     -------------------------------
A -----------------5--7------     --7----------------------------
E --------------------------- 3x  -------------------------------

En synth spelar samma melodi fast två oktaver upp,
här föjler synthen men för gitarrtabulatur:

e --14-15-17-15--------14----     -------------------------------
B ---------------15-17------- 3x  --15---17---14-----------------

e --14-15-17-15--------14----     -------------------------------
B ---------------15-17------- 3x  --17---------------------------


Outro:
e --------------------------------
B -------------------------7--7---
G ------6--7------6--7-