Kent.nu — Officiell hemsida för Sveriges största rockband

Saker man ser

Text: J. Berg
Musik: J. Berg

Text

Här under vattnet är jag blå
i poolen doftar världen klor
var det du som höll för hårt?
eller är det jag som är för svag?
var det du som blev för våt?
eller är det jag som är så hal?

Min hud är vit under mitt
armbandsur
Därunder tar vintern aldrig slut
var det du som höll för hårt?
eller är det jag som är för svag?
var det du som blev för våt?
eller är det jag som är så hal?

Det är bara saker man ser
Det är bara saker man vet…

Ackord

intro: |C    |Am    |Fmaj7  |Fmaj7  | 4x


C            Am              Fmaj7
  Här under vattnet är jag blå
C          Am              Dm     Dm/C     G/B
  i poolen doftar världen klor

          G                Am
  Var det du som höll för hårt
                G               C
  eller är det jag som är för svag?
           Fmaj7           Am
  Var det du som blev för våt
                G           Fmaj7
  eller är det jag som är så hal?

C            Am                     Fmaj7
  Min hud är vit under mitt armbandsur
C              Am               Dm    Dm/C     G/B
  Därunder tar vintern aldrig slut


          G                Am
  Var det du som höll för hårt
                G               C
  eller är det jag som är för svag?
           Fmaj7           Am
  Var det du som blev för våt
                G           Fmaj7
  eller är det jag som är så hal?

              Am       G      Fmaj7           C
  Det är bara saker man ser     (Det är bara saker man vet)   3x
              Am       G      Fmaj7
  Det är bara saker man ser


|G    |Dm    |Am    |G     |
|G    |Dm    |Fmaj7 |Fmaj7 |


e|----------------|----------------|----------------|----------------|
H|----------------|----------------|----------------|----------------|
G|----------------|----------------|----------------|----------------|
D|----------------|----------------|----------------|----------------|
A|-7-7-77-55-5-55-|-7-7-77-88-8-88-|----------------|----------------|
E|----------------|----------------|-8-8-88-77-7-77-|-3-3-33-11-1-11-|

e|----------------|----------------|----------------|-------------|
H|----------------|----------------|----------------|-------------|
G|----------------|----------------|----------------|-------------|
D|----------------|----------------|----------------|-------------|
A|-7-7-77-55-5-55-|-7-7-77-88-8-88-|----------------|----5--7--8--|
E|----------------|----------------|-8-8-88-77-7-77-|-8-----------|

|C    |Am    |F     |F    | 2x

e|-----------------|
H|-----------------|
G|--9-7-5-5/17-----|
D|-----------------|
A|-----------------|   4x
E|-----------------|

/ = glid upp, detta spelas med en E-bow, det är som ett
    elektriskt "plektrum" som sätter strängen i rörelse

              Am     G        Fmaj7           C
  Det är bara saker man ser     (Det är bara saker man vet)   3x
              Am     G        Fmaj7
  Det är bara saker man ser

C

Kommentar: C = 332010, Fmaj7 = x33210