Kent.nu — Officiell hemsida för Sveriges största rockband

Thinner

Text: J. Berg
Musik: M. Sköld

Text

Och där faller ännu ett år
sönder till små minnen
all dagar blir igår
Varför väntar du här på ingen
speciell, ingen särskild

Hur länge ska du stanna kvar ikväll?

Och där faller ännu en tår
rinner nedför kinden
Jag ska kasta allt när jag går
Fräta bort allting med Thinner
speciellt sånt man
aldrig får glömma
Jag ska stanna kvar länge ikväll

Och där faller ännu ett år
spricker upp och försvinner
men av dagarna som går
ska jag fylla varje timme…
speciellt och alldeles särskild

ska jag vara innan det
blir kväll igen…

Ackord

Intro:
       e ---------------------------------------0---
       B ---------------------------------------1---
       G ---------------------------------------2---
       D ---------------------------------------2---
       A ---3p2-----3p2-----3p2-----3p2-----3p2-0---
       E ---3-------3-------3-------3-------3-------


Am          Dsus   D        Em    D/F#
    Och där faller ännu ett år
     G      A5       Am
    sönder till små minnen
         Dsus   D     Em     D/F#
    alla dagar blir igår
            G        A5     Am
    Varför väntar du här på ingen
        Dsus  D      G         C   C/B
    speciell, ingen särskild

         Am            Bm     C
    Hur länge ska du stanna kvar ikväll?

[C B] Am

            Dsus   D        Em    D/F#
    Och där faller ännu en tår
     G      A5     Am
    rinner nerför kinden
            Dsus  D             Em    D/F#
    Jag ska kasta allt när jag går
           G      A5         Am
    Fräta bort allting med Thinner
         Dsus          D            G       C     C/B
    speciellt sånt man aldrig får glömma

     Am             Bm   C
    Jag ska stanna kvar länge ikväll


solo: |Am     |Dsus D  |Em  D/F# |G     A5| 2x
      |Am     |Dsus D  |G        |C    C/B|
      |Am  Bm |C       |

[C B] Am

            Dsus   D        Em     D/F#
    Och där faller ännu ett år
       G      A5          Am
    spricker upp och försvinner
           Dsus  D      Em      D/F#
    men av dagarna som går
             G     A5    Am
    ska jag fylla varje timme
         Dsus     D         G        C     C/B
    speciellt och alldeles särskild
             Am         Bm        C
    ska jag vara innan det blir kväll igen


solo: |Am     |Dsus D  |Em  D/F# |G     A5| 2x
      |Am     |Dsus D  |G        |C    C/B|
      |Am  Bm |C       |

Kommentar: A5 = x022xx, C/B = x22010, Dsus = xx0233, D/F# = 200232 (använd 
tummen).



Solo:
e|--0--0------------------------------------------------------------------------|
B|--1--1--1p0-------------------------------------------------------------------|
G|--2--2------2p0--------------------------5--b7--b7--b7--b7--b7b-5----5--------|
D|--2--2----------2p0----------------5-5h7--------------------------7----7--xx--|
A|--0--0--------------3p0-/5--5--5h7--------------------------------------------|
E|------------------------------------------------------------------------------|

e|--0--0------------------------------------------------------------------------|
B|--1--1--1p0-------------------------------------------------------------------|
G|--2--2------2p0--------------------------5--b7--b7--b9--b9--B9--B9--B9--B9----|
D|--2--2----------2p0----------------5-5h7--------------------------------------|
A|--0--0--------------3p0-/5--5--5h7--------------------------------------------|
E|------------------------------------------------------------------------------|

e|--0--0----------------------------------------------------------------------------|
B|--1--1--1p0-----------------------------------------------------------------------|
G|--2--2------2p0--------------------------5--b7--b7--b7--b7--b7b-5----5------------|
D|--2--2----------2p0----------------5-5h7--------------------------7----7--7/9/10--|
A|--0--0--------------3p0-/5--5--5h7------------------------------------------------|
E|----------------------------------------------------------------------------------|
  • Bengt "bengan" Johansson

    Det hade varit spännande om man kunnit se hela solot ;-~(