Kent.nu — Officiell hemsida för Sveriges största rockband

VinterNoll2

Text: J. Berg
Musik: J. Berg

Text

Och dom säger att stan har blivit tyst och ful och öde älskling
Att det kommer bli en lång kall vinter
Jag har lärt mig att saknaden är värst när nån har sovit som ett barn
Genom en iskall vinter

Du är min hjälte för du vågar vara rak
Du är min hjälte för du är precis så svag som jag
och hjälp mig jag behöver dig igen igen igen

Och du känner att staden är precis som staden alltid varit
I väntan på en lång kall vinter
Och du säger att saknad kan man lära sig att leva med ibland
Genom en iskall vinter

Du är min hjälte för du vågar vara rak
Du är min hjälte för du är precis så svag som jag
och hjälp mig jag behöver dig igen igen igen

Du är min hjälte för du vågar vara rak
Du är min hjälte för du är precis så svag som jag
och hjälp mig jag behöver dig igen igen igen

Ackord

Intro:
  G|----6---6---6---6--
  D|-------------------
  A|--4---4---4---4---- x14


  e|--9--9-7-9-----9--9-7-9----9--9-7-9----9--9-7-9--
  B|-----------9------------7-----------9------------

Bas: B            F#           C#
  e|---9--9-7-9------9--9-7-9-----9--9-7-9-----9--9-7-9--
  B|------------9-------------7------------9-------------

     B            F#          
  e|---9--9-7-9------9--9-7-9-7--
  B|------------9----------------


  C#m          E            A          C#m
B|---5--5-4-5-4---4--4-2-4-2---2--2-0------
G|------------------------------------1----

  C#m          E            A          C#m
B|---5--5-4-5-4---4--4-2-4-2---2--2-0------   
G|------------------------------------1----
 


C#m                  Emaj7           A               C#m
  Och dom säger att stan har blivit tyst och ful och öde älskling
 E                       B               C#m
  Att det kommer bli en lång kall vinter
C#m                     Emaj7       A                C#m            B
  Jag har lärt mig att saknaden är värst när nån har sovit som ett barn
           A
  Genom en iskall vinter

C#m

 A                          E    B
  Du är min hjälte för du vågar vara rak
 A                        C#m    B       A
  Du är min hjälte för du är precis så svag som jag
            A              E     B   F#m        A
  Och och hjälp mig jag behöver dig igen igen igen


  C#m          E            A          C#m
B|---5--5-4-5-4---4--4-2-4-2---2--2-0------
G|------------------------------------1----

  C#m          E            A          C#m
B|---5--5-4-5-4---4--4-2-4-2---2--2-0------   
G|------------------------------------1----

 |G#m    |G#m    |   


C#m                   Emaj7       A              C#m
  Och du känner att staden är precis som staden alltid varit
 E                B              C#m
  I väntan på en lång kall vinter
C#m                 Emaj7          A           C#m         B
  Och du säger att saknad kan man lära sig att leva med ibland
           A
  Genom en iskall vinter

C#m

 A                          E    B
  Du är min hjälte för du vågar vara rak
 A                        C#m    B       A
  Du är min hjälte för du är precis så svag som jag
            A              E     B   F#m        A
  Och och hjälp mig jag behöver dig igen igen igen


   nc
B|---5--5-4-5-4---4--4-2-4-2---2--2-0------
G|------------------------------------1----

  C#m          B            A            B
B|---9--9-7-9-7---7--7-5-7-5---5--5-4-5-4----


A                          E     B
  Du är min hjälte för du vågar vara rak
 A                        C#m    B       A
  Du är min hjälte för du är precis så svag som jag
            A              E     B   F#m        A
  Och och hjälp mig jag behöver dig igen igen igen


 |A        |A    B   |C#m      |B      |
e|--7-5-4-----------------------4------
B|-----------7-5-4--0-2--4-5--7--------

 |F#m      |A        |C#m      |B      |
e|--7-5-4------------------------------
B|-----------7-5-4--0-2--4-5--7-4------

 |A        |A    B   |C#m      |B      |
e|--7-5-4------------------------------
B|-----------7-5-4--0-2--4-5--7-4------

 |F#m      |A        |  
e|--7-5-4-----7-9----
B|----------------9--


|C#m    |C#m    |C#m/B  |C#m/F# |
|C#m    |C#m    |C#m/B  |C#m/F# |
|C#m    |C#m    |C#m/B  |C#m/F# |
|C#m    |C#m    |C#m/B  |C#m/F# |

|C#m
  • KentFan

    En av de bästa låtarna som finns! Fantastisk att sjunga :)

  • Noen sjans for at dere kan legge ut bass tab?