Kent.nu — Officiell hemsida för Sveriges största rockband

We need to eat

Text: J. Berg
Musik: J. Berg

Text

She grows silent, the light falls
Does it scare you?
Does it chew you to the bone?
I’m sorry, I didn’t know
Then I won’t put the lights out
Though you hate to undress before my eyes
For your pale skin is in need of summerlight

Chorus:

I say: You need to eat
She says: I’ll feed on your breath
What if I leave?
She says: Without you I’ll be dead
I need some sleep
but I can’t let her alone
and if I leave
I’d be afraid of coming home

She grows silent, the light falls

Cause it scares you
and I can’t help but smile
And your best friend has to be the morninglight

Chorus…

I’m losing you
I’m aware of the words I’m using
Losing you…
If you really have to know
I’m sorry but I have to let you go

Chorus…

Ackord

    n.c.
e|----5---5---5---5--|
B|--6---5------------|
G|----------7---5----|  
D|-------------------|

|n.c. |n.c. |                   
|Dm   |Dm   |Dm   |Dm   |     

Dm                       Gm
  She grows silent, the light falls
 	    C                    
  Does it scare you?
            Bb             F
  Does it chew you to the bone?
       Gm
  I'm sorry, I didn't know

|Dm   |

Dm  	                Gm 	
  Then I won't put the lights out
              C          Bb	        F
  Though you hate to undress before my eyes
            Gm                      Bb
  For your pale skin is in need of summerlight

|Bb   |


Gm
  I say: You need to eat
Bb                               F
  She says: I'll feed on your breath

  What if I leave?
C                                 Gm
  She says: Without you I'll be dead

  I need some sleep
Bb                      F
  but I can't let her alone

  and if I leave
C                          Gm
  I'd be afraid of coming home
  
|Bb   |Dm   |Dm   |


Dm                       Gm
  She grows silent, the light falls
 	     C            Bb                 F
  Cause it scares you and I can't help but smile
            Gm		              Bb
  And your best friend has to be the morninglight

|Bb   |


Gm
  I say: You need to eat
Bb                               F
  She says: I'll feed on your breath

  What if I leave?
C                                 Gm
  She says: Without you I'll be dead

  I need some sleep
Bb                      F
  but I can't let her alone

  and if I leave
C                          Gm
  I'd be afraid of coming home

  I need some sleep
Bb                        Dm
  but I can't leave her alone


C      Bb     Dm
  I'm losing you 
Bb                  Dm       Am
  I'm aware of the words I'm using
Bb       F
  Losing you... 
C/E       Dm	
  If you really have to know
       C                            Gm
  I'm sorry, but I have to let you go




  You need to eat
Bb                               F
  She says: I'll feed on your breath

  What if I leave?
C                                 Gm
  She says: Without you I'll be dead

  I need some sleep
Bb                      F
  but I can't let her alone

  and if I leave
C                          Gm
  I'd be afraid of coming home

|Bb    |Dm


Gitarr:

Vers:
    Dm                  Gm                 C                   Bb
e|----5---5---5---5--|----5---5---5---5-|----5---5---5---5--|----5---5---5---5-|
B|--6---5------------|--------------5---|--6---5------------|--------------5---|
G|----------7---5----|------5-----------|----------7---5----|------5---7-------|
D|-------------------|--8-------5-------|-------------------|--8---------------|

    F                   Gm                 Dm
e|----5---5---5---5--|----5---5---5---5-|----5---5---5---5--|
B|--6---5------------|--6---5-----------|--6---5-------5----|
G|----------7---5----|----------7---5---|----------7--------|
D|-------------------|------------------|-------------------|

(Andra versen består enbart av de nedanstående raderna)

    Dm                  Gm                 C                   Bb
e|----5---5---5---5--|----5---5---5---5-|----5---5---5---5--|----5---5---5---5-|
B|--6---5------------|--------------5---|--6---5------------|--------------5---|
G|----------7---5----|------5---7-------|----------7---5----|------5---7-------|
D|-------------------|--8---------------|-------------------|------------------|